Back

(/) Slide Up  (\) Slide Down  (h) Hammer On  (p) Pull Off  (b) Bend (r) Release (v) Vibrato
E|-------------------------------------
B|-------------------------------------
G|-------------------------------------
D|-----4-------------------------------
A|--2--------4-----5-----4--5h4p0p-----
E|--------2-----3-----2----------------



E|--------------------------------------------------
B|--------------------------------------------------
G|--------------------------------------------------
D|-----4-----------------------4--------------------
A|--2--------4-----5-----4--2--------4-----5-----4--
E|--------2-----3-----2-----------2-----3-----2-----



E|-----------------------------------------------------------------------
B|-----------------------------------------------------------------------
G|-----------------------------------------------------------------------
D|-----------------------------------------------------------------------
A|--4--4--4--4--------5--5--5--5--------4--4--4--4--------5--5--5--5-----
E|--2--2--2--2--------3--3--3--3--------2--2--2--2--------3--3--3--3-----



E|----------------------------------------------------------------------
B|----------------------------------------------------------------------
G|----------------------------------------------------------------------
D|----------------------------------------------------------------------
A|--2----2----2--2--2--2--3--3--3--3--2----2----2--2--2--2--3--3--3--3--
E|--0----0----0--0--0--0--1--1--1--1--0----0----0--0--0--0--1--1--1--1--



E|--
B|--
G|--
D|--
A|--
E|--
http://www.guitartabcreator.com
Guitar Tab Creator is intended to store guitar tab created through the tool. It currently does not support in-line text editing. Any text you place in here will be lost. If you need to comment on your tab, please use the "Tab Notes" section located below.