Walking blues

(/) Slide Up  (\) Slide Down  (h) Hammer On  (p) Pull Off  (b) Bend (r) Release (v) Vibrato


E|--------------------------------------------------------------------------------------------------
B|--------------------------------------------------------------------------------------------------
G|--------------------------------------------------------------------------------------------------
D|--------------------------------------------------------------------------------------------------
A|--------------------------------------------------------------------------------------------------
E|--0--0--4--4--5--5--6--6--7--7--6--6--5--5--4--4--0--0--0--0--4--4--5--5--6--6--7--7--6--6--5--5--



E|--------------------------------------------------------------------------------------------------
B|--------------------------------------------------------------------------------------------------
G|--------------------------------------------------------------------------------------------------
D|--------------------------------------------------------------------------------------------------
A|--------0--0--4--4--5--5--6--6--7--7--6--6--5--5--4--4--------------------------------------------
E|--4--4--------------------------------------------------0--0--4--5--5--6--7--7--6--6--5--5--4--4--



E|--------------------------------------------------------------------------------------------------
B|--------------------------------------------------------------------------------------------------
G|--------------------------------------------------------------------------------------------------
D|--------0--0--1--1--2--2--3--3--2--2--1--1--0--0--------------------------------------------------
A|--1--1--------------------------------------------0--0--4--4--5--5--6--6--7--7--6--6--5--5--4--4--
E|--------------------------------------------------------------------------------------------------



E|--------------------------------------------------------------------------------
B|--------------------------------------------------------------------------------
G|--------------------------------------------------------------------------------
D|--------------------------------------------------------------------------------
A|--------------------------------------------------------------------------------
E|--0--0--4--4--5--5--6--6--7--7--6--6--5--5--4--4--0--0--4--4--5--5--6--5--6--7--
http://www.guitartabcreator.com
Guitar Tab Creator is intended to store guitar tab created through the tool. It currently does not support in-line text editing. Any text you place in here will be lost. If you need to comment on your tab, please use the "Tab Notes" section located below.