Wanderlust

Capo 4th Fret 


Intro & First verse
E|--------------3-------------------
B|--------1-----3-------------------
G|----------------------------------
D|--2-----2------------------------- x6
A|--2-----3-----2--------0-----0----
E|--------------3-----3------2----0-


Chorus
E|--3----2----3-
B|--3----3----3-
G|-------2------ x4
D|--2-----------
A|--3-----------
E|--------------


Second Verse
E|---------------------------3--------------------
B|---------------------1-----3--------------------
G|------------------------------------------------
D|---------------2-----2--------------------------
A|----0-----0----2-----3-----2--------0------0----
E|-3-----2-----0-------------3-----3------2----0--

E|--------------3-------------------
B|--------1-----3-------------------
G|----------------------------------
D|--2-----2------------------------- x3
A|--2-----3-----2--------0-----0----
E|--------------3-----3------2----0-


Chorus
E|--3----2----3-
B|--3----3----3-
G|-------2------ x4
D|--2-----------
A|--3-----------
E|--------------


Bridge
E|--------------3-----------------------------3---3--------------------------
B|--------1-----3-----------------------------3---3--------------------------
G|---------------------------------------------------------------------------
D|--2-----2------------------------------2----2------------------------------ x3
A|--2-----3-----2--------0-----0---------2----3---2--------0-------0---------
E|--------------3-----3------2----0---------------3-----3------2------0------


Chorus
E|--3----2----3-
B|--3----3----3-
G|-------2------ x4
D|--2-----------
A|--3-----------
E|--------------


Last Verse
Chorus
E|------3----------3-----------2--------2-----------3-------------3-----------3----------3-----
B|--------3----------3-----------3--------3------3----3-------3----3-------3----3-----3----3---
G|--------------------------2---------2-------0-------------0-----------0-----------0----------
D|----2---------2---------0---------0---------------------------------------------------------- x3
A|--3---------3--------------------------------------------------------------------------------
E|---------------------------------------------------------------------------------------------

E|------3----------3-----------2--------2-----------3-------------3-------
B|--------3----------3-----------3--------3------3----3-------3----3------
G|--------------------------2---------2-------0-------------0---------0---
D|----2---------2---------0---------0-------------------------------------
A|--3---------3-----------------------------------------------------------
E|------------------------------------------------------------------------
Guitar Tab Creator is intended to store guitar tab created through the tool. It currently does not support in-line text editing. Any text you place in here will be lost. If you need to comment on your tab, please use the "Tab Notes" section located below.