Useless Memories

(/) Slide Up  (\) Slide Down  (h) Hammer On  (p) Pull Off  (b) Bend (r) Release (v) Vibrato
E|-------------------------10---------------------------10-----------10----------10----14----15----17-
B|-8-7-8-7---7-8-7-8-7-8-7----8-8-7-8-7---7-8-7-8-7-8-7----8-8/10-12----12-10-12----15----15----15----
G|---------7----------------------------7-------------------------------------------------------------
D|----------------------------------------------------------------------------------------------------
A|----------------------------------------------------------------------------------------------------
E|----------------------------------------------------------------------------------------------------



E|-------------------------10---------------------------10-----------10----------10----14----15----17-
B|-8-7-8-7---7-8-7-8-7-8-7----8-8-7-8-7---7-8-7-8-7-8-7----8-8/10-12----12-10-12----15----15----15----
G|---------7----------------------------7-------------------------------------------------------------
D|----------------------------------------------------------------------------------------------------
A|----------------------------------------------------------------------------------------------------
E|----------------------------------------------------------------------------------------------------



E|-----------------------------------------------------------------
B|-----------------------------------------------------------------
G|-----0-----0-----0-----0-------0-----0-----0-----0-----0-------0-
D|---0-----0-----4-------4-----4-----0-----0-----4-------4-----4---
A|-3-----5-----5-------5-5---5-----3-----5-----5-------5-5---5-----
E|-------------------5---5-2-------------------------5---5-2-------



E|-----------------------------------
B|-----------------------------------
G|--------0--------0--------0--------
D|-----4--------4--------4--------4--
A|--3-----------------3--------5-----
E|-----------2-----------------------



E|-------------------------10---------------------------10-----------10----------10----14----15----17-
B|-8-7-8-7---7-8-7-8-7-8-7----8-8-7-8-7---7-8-7-8-7-8-7----8-8/10-12----12-10-12----15----15----15----
G|---------7----------------------------7-------------------------------------------------------------
D|----------------------------------------------------------------------------------------------------
A|----------------------------------------------------------------------------------------------------
E|----------------------------------------------------------------------------------------------------



E|-------------------------10---------------------------10-----------10----------10----14----15----17-
B|-8-7-8-7---7-8-7-8-7-8-7----8-8-7-8-7---7-8-7-8-7-8-7----8-8/10-12----12-10-12----15----15----15----
G|---------7----------------------------7-------------------------------------------------------------
D|----------------------------------------------------------------------------------------------------
A|----------------------------------------------------------------------------------------------------
E|----------------------------------------------------------------------------------------------------



E|---------------------------------------------------------------------------------------------
B|---------------------------------------------------------------------------------------------
G|---------------------------------------------------------------------------------------------
D|-----4-----5-----4-----5-----4-----4-----5-----4-----5-----4-----4-----5-----4-----5-----4---
A|-3-3---3-3---3-3---3-3---3-3---5-5---5-5---5-5---5-5---5-5-----------------------------------
E|-------------------------------------------------------------5-5---5-5---5-5---5-5---5-5-----



E|-------------------------------
B|-------------------------------
G|-------------------------------
D|-----4-----5-----4-----5-----4-
A|-------------------------------
E|-2-2---2-2---2-2---2-2---2-2---



E|---------------------------------------------------------------------------------------------
B|---------------------------------------------------------------------------------------------
G|---------------------------------------------------------------------------------------------
D|-----4-----5-----4-----5-----4-----4-----5-----4-----5-----4-----4-----5-----4-----5-----4---
A|-3-3---3-3---3-3---3-3---3-3---5-5---5-5---5-5---5-5---5-5-----------------------------------
E|-------------------------------------------------------------5-5---5-5---5-5---5-5---5-5-----



E|-------------------------------
B|-------------------------------
G|-------------------------------
D|-----4-----5-----4-----5-----4-
A|-------------------------------
E|-2-2---2-2---2-2---2-2---2-2---



E|---------------------
B|---------------------
G|-----0-----0-----0---
D|---4-----4-----4---4-
A|-3-----------3-----5-
E|-------2-------------



E|-------------------------10---------------------------10-----------10----------10----14----15----17-
B|-8-7-8-7---7-8-7-8-7-8-7----8-8-7-8-7---7-8-7-8-7-8-7----8-8/10-12----12-10-12----15----15----15----
G|---------7----------------------------7-------------------------------------------------------------
D|----------------------------------------------------------------------------------------------------
A|----------------------------------------------------------------------------------------------------
E|----------------------------------------------------------------------------------------------------



E|-----------------------------------------------------------------------------
B|-----------------------------------------------------------------------------
G|-12-12-12-11-11-11-9-9-9-7-7-7-7-7-7-7-12-12-12-11-11-11-9-9-9-7-7-7-7-7-7-7-
D|-----------------------------------------------------------------------------
A|-10-10-10-9--9--9--7-7-7-5-5-5-5-5-5-5-10-10-10-9--9--9--7-7-7-5-5-5-5-5-5-5-
E|-----------------------------------------------------------------------------



E|-----------------------------------------------------------------------
B|-----------------------------------------------------------------------
G|-12-12-12-11-11-11-9-9-9-7-7-7-7-7-7-7-4-4-4-7-7-7-4-4-4-1-1-1-1-1-1-1-
D|---------------------------------------------------------0-0-0-0-0-0-0-
A|-10-10-10-9--9--9--7-7-7-5-5-5-5-5-5-5-2-2-2-5-5-5-2-2-2-0-0-0-0-0-0-0-
E|-----------------------------------------------------------------------



E|---------------------------------------------------------------------------
B|---------------------------------------------------------------------------
G|-12-12-12-11-11-11-9-9-9-7-7-7-7-7-7-12-12-12-11-11-11-9-9-9-7-7-7-7-7-7-7-
D|---------------------------------------------------------------------------
A|-10-10-10-9--9--9--7-7-7-5-5-5-5-5-5-10-10-10-9--9--9--7-7-7-5-5-5-5-5-5-5-
E|---------------------------------------------------------------------------



E|---------------------------------------------------------------------------
B|---------------------------------------------------------------------------
G|-12-12-12-11-11-11-9-9-9-7-7-7-7-7-7-7-4-4-4-7-7-7-4-4-4-1-1-1-1-1-1-1-----
D|---------------------------------------------------------0-0-0-0-0-0-0-----
A|-10-10-10-9--9--9--7-7-7-5-5-5-5-5-5-5-2-2-2-5-5-5-2-2-2-0-0-0-0-0-0-0-----
E|---------------------------------------------------------------------------



E|---------------------
B|---------------------
G|-----0-----0-----0---
D|---4-----4-----4---4-
A|-3-----------3-----5-
E|-------2-------------



E|-------------------------10---------------------------10-----------10----------10----14----15----17-
B|-8-7-8-7---7-8-7-8-7-8-7----8-8-7-8-7---7-8-7-8-7-8-7----8-8/10-12----12-10-12----15----15----15----
G|---------7----------------------------7-------------------------------------------------------------
D|----------------------------------------------------------------------------------------------------
A|----------------------------------------------------------------------------------------------------
E|----------------------------------------------------------------------------------------------------



E|-------------------------10---------------------------10-----------10----------10----14----15----17-
B|-8-7-8-7---7-8-7-8-7-8-7----8-8-7-8-7---7-8-7-8-7-8-7----8-8/10-12----12-10-12----15----15----15----
G|---------7----------------------------7-------------------------------------------------------------
D|----------------------------------------------------------------------------------------------------
A|----------------------------------------------------------------------------------------------------
E|----------------------------------------------------------------------------------------------------
http://www.guitartabcreator.com
Guitar Tab Creator is intended to store guitar tab created through the tool. It currently does not support in-line text editing. Any text you place in here will be lost. If you need to comment on your tab, please use the "Tab Notes" section located below.