duet

(/) Slide Up  (\) Slide Down  (h) Hammer On  (p) Pull Off  (b) Bend (r) Release (v) Vibrato
t: none none none none none none none none none none none none none none none none none none none none none none none none none none none none none none
E|--7--------------------------------3--3--2--0--3--------------------------------2--2--0-----
B|-----0--0--------0--------0-----0-----------------0--0--------0--------0-----0-----------3--
G|-----0--0--------0--------0-----0-----------------0--0--------0--------0-----0--------------
D|--------------------------------------------------------------------------------------------
A|--------------------------------------------------------1--2--1--1--2-----------------------
E|--0--------6--7-----6--7-----0-----------------0--------------------------0-----------------


t: none none none none none none none none none none none none none none none none none none none none none none none none none none none none none
E|-----------------2--0-----------------0--2--3--------------------------3--------2--3--5--
B|--1--------------------4-----------------------0--0--------0--------0-----1--1--0--------
G|-----2--2-----2-----------2--2-----2-----------0--0--------0--------0-----2--2-----------
D|-----2--2-----2-----------4--4-----4-----------------------------------------------------
A|--0--------0-----------2--------2--------------------1--2-----1--2--------------2--------
E|--------------------------------------------0--------------------------0-----------------



E|--
B|--
G|--
D|--
A|--
E|--



E|--
B|--
G|--
D|--
A|--
E|--
http://www.guitartabcreator.com
Guitar Tab Creator is intended to store guitar tab created through the tool. It currently does not support in-line text editing. Any text you place in here will be lost. If you need to comment on your tab, please use the "Tab Notes" section located below.