Project 1

(/) Slide Up  (\) Slide Down  (h) Hammer On  (p) Pull Off  (b) Bend (r) Release (v) Vibrato

Stave 1:

E|--0--1--0--1-----
B|--1--1--1--3-----
G|--2--2--0--2-----
D|--2--3--2--0-----
A|--0--3--3--x-----
E|--x--1--x--x-----

Stave 2:

E|---------------------------------------------------------------
B|-----------------------------------------------8--6--5h6p5-----
G|--5--5--5--7--5--5--5--5--7--5--5--5--5--7--5---------------7--
D|---------------------------------------------------------------
A|---------------------------------------------------------------
E|---------------------------------------------------------------

Stave 3:

E|-----------------------------------------------------------------------------------------------
B|--------8--------8--------6--------6--------6-----------5--------5--------6--------6-----------
G|--5--5-----5--5-----5--5-----5--5-----5--5-----5--5--5-----5--5-----5--5-----5--5-----5--5-----
D|-----------------------------------------------------------------------------------------------
A|-----------------------------------------------------------------------------------------------
E|-----------------------------------------------------------------------------------------------

Stave 4:

E|-----------
B|-----------
G|--5--5--5--
D|-----------
A|-----------
E|-----------

Stave 5:

E|--8--8--8--8--8--8--8--8--10--10--10--10--10--10--10--10--12--12--12--12--12--12--12--12--
B|------------------------------------------------------------------------------------------
G|------------------------------------------------------------------------------------------
D|------------------------------------------------------------------------------------------
A|------------------------------------------------------------------------------------------
E|------------------------------------------------------------------------------------------

Stave 6:

E|--10--10--10--10--10--10--10--10--
B|----------------------------------
G|----------------------------------
D|----------------------------------
A|----------------------------------
E|----------------------------------

Stave 7:

E|--------------------------------------------------------------------
B|-----8-----8-----8-----8-----8-----10-----10-----10-----10--12--10--
G|--7-----7-----7-----7-----7-----9------9------9------9--------------
D|--------------------------------------------------------------------
A|--------------------------------------------------------------------
E|--------------------------------------------------------------------

Stave 8:

E|------------------------------------------------------
B|-----5-----5-----5-----5------------------------------
G|--7-----7-----7-----7-----7\9--7--7\12--9--7--5h7--5--
D|------------------------------------------------------
A|------------------------------------------------------
E|------------------------------------------------------

Stave 9:

E|--------------------------------------------------
B|-----5--------6--------6-----5-----------5--------
G|--5-----5--5-----5--5-----5-----5--5--7-----7--7--
D|--------------------------------------------------
A|--------------------------------------------------
E|--------------------------------------------------

Stave 10:

E|---------------------------
B|--5--8--10--8--5--3--1--3--
G|---------------------------
D|---------------------------
A|---------------------------
E|---------------------------

Stave 11:

E|--------------10-----------------------8---------------------------------------
B|-----8-----8------8-----8-----8-----8-----8-----8------8------8------8------8--
G|--7-----7------------7-----7-----7-----------7-----10-----10-----10-----10-----
D|-------------------------------------------------------------------------------
A|-------------------------------------------------------------------------------
E|-------------------------------------------------------------------------------

Stave 12:

E|--------------------------
B|-----8-----8-----8-----8--
G|--9-----9-----9-----9-----
D|--------------------------
A|--------------------------
E|--------------------------

Stave 13:

E|--------------------------------------------------
B|--5--5--5--8--5-----------5--5--5--8--5-----------
G|-----------------7--5--7-----------------7--5--7--
D|--------------------------------------------------
A|--------------------------------------------------
E|--------------------------------------------------

http://www.guitartabcreator.com
Guitar Tab Creator is intended to store guitar tab created through the tool. It currently does not support in-line text editing. Any text you place in here will be lost. If you need to comment on your tab, please use the "Tab Notes" section located below.