Salvation chorus (lead)

(/) Slide Up  (\) Slide Down  (h) Hammer On  (p) Pull Off  (b) Bend (r) Release (v) Vibrato

E|-----------------------------------
B|-----------------------------------
G|-----------5--7--5--7--9--7--5--7--
D|--5-/7--7--------------------------
A|-----------------------------------
E|-----------------------------------



E|--------------------------------------
B|--------------------5--6--6-p5--------
G|-----------5--7--7--------------7--5--
D|--5-/7--7-----------------------------
A|--------------------------------------
E|--------------------------------------



E|-----------------------------------
B|-----------------------------------
G|-----------5--7--7-p5--------------
D|--5-/7--7--------------7--5--7--5--
A|-----------------------------------
E|-----------------------------------



E|-----------------------
B|-----------------------
G|-----------------------
D|-----------------------
A|--/5--3--5--7--5--3--5--
E|-----------------------
http://www.guitartabcreator.com
Guitar Tab Creator is intended to store guitar tab created through the tool. It currently does not support in-line text editing. Any text you place in here will be lost. If you need to comment on your tab, please use the "Tab Notes" section located below.