Blue Ridge Mountains

(/) Slide Up  (\) Slide Down  (h) Hammer On  (p) Pull Off  (b) Bend (r) Release (v) Vibrato


E|-----------2----1--1--2--1----------------------------------------
B|--2--4--6-------------------6--4--6----4--2--4--6--4--------2-----
G|------------------------------------------------------6--4-----6--
D|------------------------------------------------------------------
A|------------------------------------------------------------------
E|------------------------------------------------------------------



E|------------------------------------------4--------------------------
B|--6--6--6--6--4----6--6--6--6--6--4----6-----6--4--------------------
G|---------------------------------------------------6--6--6--6--6--4--
D|---------------------------------------------------------------------
A|---------------------------------------------------------------------
E|---------------------------------------------------------------------



E|------------------------------------------4--------------------------
B|--6--6--6--6--4----6--6--6--6--6--4----6-----6--4--------------------
G|---------------------------------------------------6--6--6--6--6--4--
D|---------------------------------------------------------------------
A|---------------------------------------------------------------------
E|---------------------------------------------------------------------



E|------------------------------------------4--------------------------
B|--6--6--6--6--4----6--6--6--6--6--4----6-----6--4--------------------
G|---------------------------------------------------6--6--6--6--6--4--
D|---------------------------------------------------------------------
A|---------------------------------------------------------------------
E|---------------------------------------------------------------------
http://www.guitartabcreator.com
Guitar Tab Creator is intended to store guitar tab created through the tool. It currently does not support in-line text editing. Any text you place in here will be lost. If you need to comment on your tab, please use the "Tab Notes" section located below.