Honey Bee Intro and Solo

(/) Slide Up  (\) Slide Down  (h) Hammer On  (p) Pull Off  (b) Bend (r) Release (v) Vibrato
E|----------------------------------------------
B|--5----5--5--5-------5--5-------5--5--4----4--
G|--4----4--4--6--4h6-----4--4h6--6--6--4----4--
D|--4h6--6--6--6----------7-------7--7--4h6-----
A|----------------------------------------------
E|----------------------------------------------



E|--------------------------------------------------------------
B|----9-----9---9---9---------9--------10-----------------------
G|----9-----9---9---9---------9--9-----9---9-----8--------------
D|----9-----9---9---11--9h11-----9h11--11--9-----9--------9-----
A|----9h11--11--11--11---------------------9h11--9--------9-----
E|--------------------------------------------------9h11--------



E|--------------------------------------------------------------------------------
B|----5--5--5--5---------------------5---------------------------------12--12-----
G|----4--4--4--4----------------4/6---------------------------9--9----b13--13-----
D|--4/6--6--6--6--6\4--2-----2----------6\4--2--4/6--2--9/11--------11------------
A|------------------------4-------------------------------------------------------
E|--------------------------------------------------------------------------------



E|--9--------------------9---------0------0-----0-----0-----0-----0-----0-----0--
B|-----12------------12-----12/14-----12-----9-----7-----5-----4-----2-----0-----
G|---------13r11b13--------------------------------------------------------------
D|-------------------------------------------------------------------------------
A|-------------------------------------------------------------------------------
E|-------------------------------------------------------------------------------



E|-------------9-----------------------------------------------------------------
B|---------12-----12/14--12-12--12-12------------12--12--10--9---------9---------
G|--11b13----------------11b13--13r11--9---------13--13--11--9---------9---------
D|----------------------------------------11--9-----------------11--9-----11--9--
A|-------------------------------------------------------------------------------
E|-------------------------------------------------------------------------------



E|-----------
B|-----------
G|-----------
D|-----------
A|--9b11--7--
E|-----------
http://www.guitartabcreator.com
Guitar Tab Creator is intended to store guitar tab created through the tool. It currently does not support in-line text editing. Any text you place in here will be lost. If you need to comment on your tab, please use the "Tab Notes" section located below.