Requiem-4

(/) Slide Up  (\) Slide Down  (h) Hammer On  (p) Pull Off  (b) Bend (r) Release (v) Vibrato


G|---|----|---|----|3-2-0---3-2-0---|3-2-0---5-3-2-3-|3-2-0---3-2-0---|3-2-0---5-3-2-0-|
D|-5-|1-0-|-5-|1-0-|------0-------0-|------0---------|------0-------0-|------0---------|
A|---|----|---|----|----------------|----------------|----------------|----------------|
E|---|----|---|----|----------------|----------------|----------------|----------------|
B|---|----|---|----|----------------|----------------|----------------|----------------|

G|-3-2-0---3-2-0---|3-2-0---5-3-2-3-|3-2-0---3-2-0---|3-2-0---5-3-2-0-|3-2-0---3-2-0---|
D|-------0-------0-|------0---------|------0-------0-|------0---------|------0-------0-|
A|-----------------|----------------|----------------|----------------|----------------|
E|-----------------|----------------|----------------|----------------|----------------|
B|-----------------|----------------|----------------|----------------|----------------|

G|-3-2-0---5-3-2-3-|3-2-0---3-2-0---|3-2-0---5-3-2-3-|----------------|------------------------|
D|-------0---------|------0-------0-|------0---------|----------------|------------------------|
A|-----------------|----------------|----------------|1---1---1---1---|1---1---1---1---1---1---|
E|-----------------|----------------|----------------|--3---3---3---3-|--3---3---3---3---3---3-|
B|-----------------|----------------|----------------|----------------|------------------------|

G|-----------------|------------------------|------------------|--------------------------|
D|-----------------|------------------------|------------------|--------------------------|
A|-1-0-1-0-1-0-1-0-|1-0-1-0-1-0-1-0-1-0-1-0-|1---1---1-----1---|1-----1---1---1---1---1---|
E|-----------------|------------------------|--3---3---3-3---3-|--3-3---3---3---3---3---3-|
B|-----------------|------------------------|------------------|--------------------------|

G|---------------------|--------------------------|------------------------|
D|---------------------|--------------------------|0-0-0-----0-0-0-0-0-----|
A|-1-0-0-1-0-1-0-0-1-0-|1-0-0-1-0-1-0-1-0-1-0-1-0-|------1-1-----------1-1-|
E|---------------------|--------------------------|------------------------|
B|---------------------|--------------------------|------------------------|

G|-0-0-0-0-0-3-3-3-0---------------|3-2-0---3-2-0---|3-2-0---5-3-2-3-|3-2-0---3-2-0---|
D|-------------------0-0-0-0-0-0-0-|------0-------0-|------0---------|------0-------0-|
A|---------------------------------|----------------|----------------|----------------|
E|---------------------------------|----------------|----------------|----------------|
B|---------------------------------|----------------|----------------|----------------|

G|-3-2-0---5-3-2-3-|----------------|------------------------|--------------------|
D|-------0---------|----------------|------------------------|--------------------|
A|-----------------|1---1---1---1---|1---1---1---1---1---1---|1-0-0-1-0-1-0-0-1-0-|
E|-----------------|--3---3---3---3-|--3---3---3---3---3---3-|--------------------|
B|-----------------|----------------|------------------------|--------------------|

G|---------------------------|------------------------|0-0-0-0-0-3-3-3-0---------------|
D|---------------------------|0-0-0-----0-0-0-0-0-----|------------------0-0-0-0-0-0-0-|
A|-1-0-0-1-0-1-0-1-0-1-0-1-0-|------1-1-----------1-1-|--------------------------------|
E|---------------------------|------------------------|--------------------------------|
B|---------------------------|------------------------|--------------------------------|

G|-----------------|----------------|----------------|----------------|---|
D|-----------------|----------------|----------------|----------------|-5-|
A|-1-0-----1-0-----|1-0-----3-1-0-1-|1-0-----1-0-----|1-0-----3-1-0-1-|---|
E|-----3-------3---|----3-----------|----3-------3---|----3-----------|---|
B|-------3-------3-|------3---------|------3-------3-|------3---------|---|
Guitar Tab Creator is intended to store guitar tab created through the tool. It currently does not support in-line text editing. Any text you place in here will be lost. If you need to comment on your tab, please use the "Tab Notes" section located below.