Requiem-3

(/) Slide Up  (\) Slide Down  (h) Hammer On  (p) Pull Off  (b) Bend (r) Release (v) Vibrato


G|---|----|---|----|---|----|---|----|---|----|---|----|--------|--------|--------|--------|
D|-5-|1-0-|-5-|1-0-|-5-|1-0-|-5-|1-0-|-5-|1-0-|-5-|1-0-|5-------|1---0---|0-0-0-0-|--------|
A|---|----|---|----|---|----|---|----|---|----|---|----|--------|--------|--------|1-1-0-0-|
E|---|----|---|----|---|----|---|----|---|----|---|----|--6-6-6-|--6---6-|--------|--------|
B|---|----|---|----|---|----|---|----|---|----|---|----|--------|--------|--------|--------|

G|---------|--------|--------|---------2-|--3---3-|--3---1-|--3---3-|--3---1-|
D|-5-0-0-0-|1---0---|5-0-0-0-|1----0-4---|5---5---|1---0---|5---5---|1---0---|
A|---------|--1---0-|--------|--1-0------|--------|--------|--------|--------|
E|---------|--------|--------|-----------|--------|--------|--------|--------|
B|---------|--------|--------|-----------|--------|--------|--------|--------|

G|------------------------|------------------------------|--------|--------|--------|--------|
D|------------------------|------------------------------|5-------|1---0---|0-0-0-0-|--------|
A|-1-0---1-1-1-0-0-0--1-1-|1-0-0-0---------0-0-0-0-1-1-1-|--------|--------|--------|1-1-0-0-|
E|-----3------------3-----|--------3-3-3-3---------------|--6-6-6-|--6---6-|--------|--------|
B|------------------------|------------------------------|--------|--------|--------|--------|

G|---------|--------|--------|---------2-|--3---3-|--3---2-|--3---3-|--3---2-|
D|-5-0-0-0-|1---0---|5-0-0-0-|1----0-4---|5---5---|1---0---|5---5---|1---0---|
A|---------|--1---0-|--------|--1-0------|--------|--------|--------|--------|
E|---------|--------|--------|-----------|--------|--------|--------|--------|
B|---------|--------|--------|-----------|--------|--------|--------|--------|

G|------------------------|------------------------------|----------------|----------------|
D|------------------------|------------------------------|----------------|----------------|
A|-1-0---1-1-1-0-0-0--1-1-|1-0-0-0---------0-0-0-0-1-1-1-|1-0-----1-0-----|1-0-----3-1-0-1-|
E|-----3------------3-----|--------3-3-3-3---------------|----3-------3---|----3-----------|
B|------------------------|------------------------------|------3-------3-|------3---------|

G|-----------------|----------------|---|
D|-----------------|----------------|-5-|
A|-1-0-----1-0-----|1-0-----3-1-0-1-|---|
E|-----3-------3---|----3-----------|---|
B|-------3-------3-|------3---------|---|
Guitar Tab Creator is intended to store guitar tab created through the tool. It currently does not support in-line text editing. Any text you place in here will be lost. If you need to comment on your tab, please use the "Tab Notes" section located below.