Requiem-1

(/) Slide Up  (\) Slide Down  (h) Hammer On  (p) Pull Off  (b) Bend (r) Release (v) Vibrato


G|---|----|---|----|---|----|---|----|---|----|---|----|--------|--------|--------|--------|--------|
D|---|----|---|----|---|----|---|----|---|----|---|----|--------|--------|--------|--------|--------|
A|---|----|---|----|---|----|---|----|---|----|---|----|--------|--------|--------|--------|--------|
E|-3-|----|-3-|----|-3-|----|-3-|----|-3-|----|-3-|----|3-6-6-6-|--6---6-|3-3-3-3-|--------|3-3-3-3-|
B|---|4-3-|---|4-3-|---|4-3-|---|4-3-|---|4-3-|---|4-3-|--------|4---3---|--------|4-4-3-3-|--------|

G|---------|--------|------------|-------|--------|--------|--------|-----------------------|
D|---------|--------|----------0-|--0--0-|--1---0-|--0---0-|--1---0-|-----------------------|
A|---------|--------|--------0---|-------|--------|--------|--------|-----------------------|
E|---------|3-3-3-3-|------1-----|3---3--|--------|3---3---|--------|3-3--3-3--3-3-3-3--3-3-|
B|-4-4-3-3-|--------|4-4-3-------|-------|4---3---|--------|4---3---|-----------------------|

G|---------------------------|--------|------|--------|--------|--------|--------|--------|
D|---------------------------|--------|------|--------|--------|--------|--------|--------|
A|---------------------------|--------|------|--------|--------|--------|--------|--------|
E|---------------------------|3-6-6-6-|-6--6-|3-3-3-3-|--------|3-3-3-3-|--------|3-3-3-3-|
B|-4-4-4-4--4-4-3-3-3-3--3-3-|--------|4--3--|--------|4-4-3-3-|--------|4-4-3-3-|--------|

G|------------|------|--------|-------|--------|-----------------------|
D|----------0-|-0--0-|--1---0-|-0---0-|--1---0-|-----------------------|
A|--------0---|------|--------|-------|--------|-----------------------|
E|-------1----|3--3--|--------|3---3--|--------|3-3--3-3--3-3-3-3--3-3-|
B|-4-4-3------|------|4---3---|-------|4---3---|-----------------------|

G|--------------------------|---|----|---|----|---|
D|--------------------------|---|----|---|----|---|
A|--------------------------|---|----|---|----|---|
E|--------------------------|-3-|----|-3-|----|-3-|
B|-4-4-4-4-4-4--3-3-3-3-3-3-|---|4-3-|---|4-3-|---|
Guitar Tab Creator is intended to store guitar tab created through the tool. It currently does not support in-line text editing. Any text you place in here will be lost. If you need to comment on your tab, please use the "Tab Notes" section located below.