My Scars- Devotchkas. (Bass Tab)

(/) Slide Up  (\) Slide Down  (h) Hammer On  (p) Pull Off  (b) Bend (r) Release (v) Vibrato

First Riff-

G|------11-------11-------7-------7------9-------9-------6---------7---
D|--4-4----4-4-4----4-0-0---0-0-0---0-2-2--2-2-2---2---------0-0-0---0-
A|---------------------------------------------------4-4---4-----------
E|---------------------------------------------------------------------

Second Riff-

G|----------------------------------------------------------------------------------------
D|-4-4--4-4-4--4-4--4-4--0-0--0-0-0--0-0--0-0--2-2--2-2-2--2-2--2-2--------------0-0--0-0-
A|-------------------------------------------------------------------4-4--4-4-4-----------
E|----------------------------------------------------------------------------------------

Third Riff-

G|------------------------------------------------------------------------------
D|-4-4--4-4--7--6--4--2-2--2-2--7--6--4--0-0--0-0--7--6--4------------0-0--0-0--
A|----------------------------------------------------------4-4--4-4------------
E|------------------------------------------------------------------------------
Guitar Tab Creator is intended to store guitar tab created through the tool. It currently does not support in-line text editing. Any text you place in here will be lost. If you need to comment on your tab, please use the "Tab Notes" section located below.