O Holy Night

(/) Slide Up  (\) Slide Down  (h) Hammer On  (p) Pull Off  (b) Bend (r) Release (v) Vibrato

E|--------------------|--------------------|--------------------|--------------------
B|-----------2--------|-----------2--------|-----------3--------|-----------3--------
G|--------2-----2-----|--------2-----2-----|--------1-----1-----|--------1-----1-----
D|-----2-----------2--|-----2-----------2--|-----2-----------2--|-----2-----------2--
A|--0-----------------|--0-----------------|--------------------|--------------------
E|--------------------|--------------------|--0-----------------|--0-----------------



E|--------------------|--0--------------0--|--2-----2--------2--|--5-----------------
B|--2--------2-----2--|-----------2--------|-----------3--------|-----------2--------
G|--------2-----2-----|--------2-----2-----|--------2-----2-----|--------2-----2-----
D|-----2-----------2--|-----2-----------2--|-----4-----------4--|-----2-----------2--
A|--0-----------------|--0-----------------|--5-----------------|--0-----------------
E|--------------------|--------------------|--------------------|--------------------



E|--0-----0-----------|--------------------|--0-----------------|--0-----------------
B|-----------2-----0--|-----------2-----3--|-----------3-----0--|-----------2--------
G|--------2-----2-----|--2-----2-----2-----|--------1-----1-----|--------2-----2-----
D|-----2-----------2--|-----2-----------2--|-----2-----------2--|-----2-----------2--
A|--0-----------------|--0-----------------|--------------------|--0-----------------
E|--------------------|--------------------|--0-----------------|--------------------



E|--
B|--
G|--
D|--
A|--
E|--
http://www.guitartabcreator.com
Guitar Tab Creator is intended to store guitar tab created through the tool. It currently does not support in-line text editing. Any text you place in here will be lost. If you need to comment on your tab, please use the "Tab Notes" section located below.