Jazz Lick

(/) Slide Up  (\) Slide Down  (h) Hammer On  (p) Pull Off  (b) Bend (r) Release (v) Vibrato
E|------------8---------|------------------7--|--------------5--------|------------|--
B|--10----10-----11--8--|--7-----7--8--10-----|--7----7---------7--8--|--7------7--|--
G|--9-----9-------------|-----9---------------|--7----7---------------|--6------6--|--
D|--10----10------------|---------------------|--5----5---------------|--5------5--|--
A|--9-----9-------------|---------------------|--7----7---------------|------------|--
E|----------------------|---------------------|-----------------------|------------|--



E|-------------8--10--11--10--8----|-----------------------|---------------|-----------------|--
B|-----10--10--------------------8\|--7-----7-----8--7--8--|--10--x--7--7--|-----7--x--7--7--|--
G|-----9---------------------------|-----9-----8-----------|--7---x--7--7--|-----6--x--6--6--|--
D|-----10--------------------------|-----------------------|--7---x--5--5--|-----5--x--5--5--|--
A|--9------------------------------|-----------------------|---------7--7--|-----------------|--
E|---------------------------------|-----------------------|--7---x--------|--5--------5-----|--



E|--------------8--12--8---------|-----------------------------|------------------|--
B|--7----8--10-------------------|--------7-----7--8--10--6/7--|--7--6------5--4--|--
G|--9---------------------12--11\|--9--8-----9-----------------|--7--6------5--4--|--
D|--9----------------------------|-----------------------------|--5--5------3--3--|--
A|-------------------------------|-----------------------------|--7--6------5--4--|--
E|--9----------------------------|-----------------------------|------------------|--



E|--5--3-----3--5--6-----|--4--4--------4-----|-----7------
B|--3-----6-----------5--|--2--2-----2-----2--|-----7--7---
G|--3--------------------|--2--2--2-----------|-----6--8---
D|--3--------------------|--------------------|-----5--9---
A|-----------------------|--2--2--------------|--------10--
E|-----------------------|--------------------|--0---------
http://www.guitartabcreator.com
Guitar Tab Creator is intended to store guitar tab created through the tool. It currently does not support in-line text editing. Any text you place in here will be lost. If you need to comment on your tab, please use the "Tab Notes" section located below.