Behind the Door

(/) Slide Up  (\) Slide Down  (h) Hammer On  (p) Pull Off  (b) Bend (r) Release (v) Vibrato

E|------------------------------------------------------
B|------0---------0---------------0-----------2/4--2p0--
G|---------0---------0-----0---------0-----0------------
D|------------13--------0---------------0---------------
A|------------------------------------------------------
E|--13------------------------13------------------------



E|-----------------------------------------------------
B|------0---------0----------------2-------------------
G|---------0---------0-----0--2/4-----4-----2-----4p0--
D|------------13--------0----------------0-----0-------
A|-----------------------------------------------------
E|--13-------------------------------------------------



E|----------------------------------------
B|-----0--------0-------------------------
G|--------0--------0-----0----------------
D|-----------0--------0-----2--2--2/4--0--
A|--2-------------------------------------
E|----------------------------------------



E|-----------------------------------------------------
B|-----0--------0--------------0--------0--------------
G|--------0--------0-----0--------0--------0-----------
D|-----------0--------0--------------------------------
A|--2-----------------------4--------2-----------------
E|--------------------------------------------4--2--0--



E|--------------------------------------------------------------------------------------------------
B|------0---------0----------------2--------------4/7---7---7---7---7----5--5--5-0------------------
G|---------0---------0-----0--2/4-----4-----2---------------------------------------0h2-----2/4--5--
D|------------13--------0----------------0-----0-----------------------------------------0----------
A|--------------------------------------------------------------------------------------------------
E|--13----------------------------------------------0v--0v--0v--0v--0v--\0--0--0\0--0---------------
http://www.guitartabcreator.com
Guitar Tab Creator is intended to store guitar tab created through the tool. It currently does not support in-line text editing. Any text you place in here will be lost. If you need to comment on your tab, please use the "Tab Notes" section located below.