Boyce Avenue feat. Megan Nicole - Just A Kiss (Lady Antebellum Cover) [Cover by Amiel Aban feat. Kayla Arellano] on YouTube

Boyce Avenue feat. Megan Nicole - Just A Kiss (Lady Antebellum Cover)
(Covered by Amiel Aban feat. Kayla Arellano)
Link: http://www.youtube.com/watch?v=X1pCjU6Uoro

FEEL FREE to SUBSCRIBE to my YouTube Channel : http://www.youtube.com/mynameisAmieL
Follow me on Twitter: @mynameisAmieL
Like me on FACEBOOK: http://www.facebook.com/mynameisamielmusicOFFICIAL
Download my tracks for FREE on: http://www.reverbnation.com/mynameisamielmusic or in the "Band Profile" or "FREE MP3s" section on my FACEBOOK Page. :)

TABS:
(/) Slide Up (\) Slide Down (h) Hammer On (p) Pull Off (b) Bend (r) Release (v) Vibrato (x) Mute (N.H.) Natural Harmonics


Intro:

C#|--0------/0--/0--0-----4-\2-0-0-0------/0--/0--0-----4-\2-0-0-0--|
A#|--0------/0--/0--0-----0-\0-0-0-0------/0--/0--0-----0-\0-0-0-0--|
F#|--2------/4--/0--0-----0-\0-0-4-2------/4--/0--0-----0-\0-0-4-2--|
C#|--0------/0--/0--0-----4-\2-0-0-0------/0--/0--0-----4-\2-0-0-0--|
G#|--2------/4--/5--x-----x-\x-x-4-2------/4--/5--0-----x-\x-x-4-2--|
C#|--x------/x--/x--5-----x-\x-x-x-x------/x--/x--5-----x-\x-x-x-x--|

Verse:

Lying here..
C#|--0------/0--/0--0-----4-\2-0-0-0------/0--/0--0-----4-\2-0-0--|
A#|--0------/0--/0--0-----0-\0-0-0-0------/0--/0--0-----0-\0-0-0--|
F#|--2------/4--/0--0-----0-\0-0-4-2------/4--/0--0-----0-\0-0-4--|
C#|--0------/0--/0--0-----4-\2-0-0-0------/0--/0--0-----4-\2-0-0--|
G#|--2------/4--/5--x-----x-\x-x-4-2------/4--/5--0-----x-\x-x-4--|
C#|--x------/x--/x--5-----x-\x-x-x-x------/x--/x--5-----x-\x-x-x--|

Caught up in this moment..
C#|--0------0--0-------|
A#|--0------0--0-------|
F#|--0------7--6-------|
C#|--2------7--7-------|
G#|--2------0--0-------|
C#|--2------x--x-------|

I've never opened up..
C#|--0------/0--/0--0-----4-\2-0-0-0------/0--/0--0-----4-\2-0-0--|
A#|--0------/0--/0--0-----0-\0-0-0-0------/0--/0--0-----0-\0-0-0--|
F#|--2------/4--/0--0-----0-\0-0-4-2------/4--/0--0-----0-\0-0-4--|
C#|--0------/0--/0--0-----4-\2-0-0-0------/0--/0--0-----4-\2-0-0--|
G#|--2------/4--/5--x-----x-\x-x-4-2------/4--/5--0-----x-\x-x-4--|
C#|--x------/x--/x--5-----x-\x-x-x-x------/x--/x--5-----x-\x-x-x--|

We don't need to rush this..
C#|--0------0--0-------|
A#|--0------0--0-------|
F#|--0------7--6-------|
C#|--2------7--7-------|
G#|--2------0--0-------|
C#|--2------x--x-------|

Chorus:

Just a kiss on your lips.. (tab count: 3x)
C#|--0---0---0--0----|
A#|--0---0---0--0----|
F#|--4---0---7--6----|
C#|--4---0---7--7----|
G#|--2---x---0--0----|
C#|--x---5---x--x----|

For my whole life..
C#|--0----0--0---0-----|
A#|--0----0--0---0-----|
F#|--0----0--0---6-----|
C#|--2----x--0---7-----|
G#|--2----x--x---0-----|
C#|--2----4--5---x-----|

Pre-Verse II:
C#|--0------/0--/0--0-----x--x\--|
A#|--0------/0--/0--0-----10--10\--|
F#|--2------/4--/0--0-----11--9\--|
C#|--0------/0--/0--0-----9--9\--|
G#|--2------/4--/5--x-----x--x\--|
C#|--x------/x--/x--5-----x--x\--|

(Repeat Verse)
(Repeat Chorus)

Bridge:
I know it's time to leave...
C#|--0------0---0---0---0------0---0---------0----------0---0----|
A#|--0------0---0---0---0------0---0---------0----------0---0----|
F#|--0------0---4---6---0------0---4---------0----------7---6----|
C#|--2---h0-2---4---7---2---h0-2---4---------0----------7---7----|
G#|--2---h0-2---2---0---2---h0-2---2---------x----------0---7----|
C#|--2---h0-2---x---x---2---h0-2---x---------5----------x---x----|

Tonight..
N.H.
C#|--0------/0--/0--0-----4-\2-0-0-0----/12--|
A#|--0------/0--/0--0-----0-\0-0-0-0----/12--|
F#|--2------/4--/0--0-----0-\0-0-4-2----/12--|
C#|--0------/0--/0--0-----4-\2-0-0-0----/12--|
G#|--2------/4--/5--x-----x-\x-x-4-2----/x---|
C#|--x------/x--/x--5-----x-\x-x-x-x----/x---|

Chorus:
C#|--0---0---0--0----0---0---0--0-0-0\--|
A#|--0---0---0--0----0---0---0--0-0-0\--|
F#|--4---0---7--6----4---0---7--6-7-6\--|
C#|--4---0---7--7----4---0---7--7-7-6\--|
G#|--2---x---0--0----2---x---0--0-0-6\--|
C#|--x---5---x--x----x---5---x--x-x-x\--|

Just a shot in the dark..
C#|--0---0---0--0----|
A#|--0---0---0--0----|
F#|--4---0---7--6----|
C#|--4---0---7--7----|
G#|--2---x---0--0----|
C#|--x---5---x--x----|

For my whole life..
C#|--0----0--0---0-----|
A#|--0----0--0---0-----|
F#|--0----0--0---6-----|
C#|--2----x--0---7-----|
G#|--2----x--x---0-----|
C#|--2----4--5---x-----|

Oh...Let's do this right..
C#|--0----0--0---0-----|
A#|--0----0--0---0-----|
F#|--0----0--0---6-----|
C#|--2----x--0---7-----|
G#|--2----x--x---0-----|
C#|--2----4--5---x-----|

Outro:
C#|--0------/0--/0--0-----4-\2-0-0-0------/0--/0--0-------|
A#|--0------/0--/0--0-----0-\0-0-0-0------/0--/0--0-------|
F#|--2------/4--/0--0-----0-\0-0-4-2------/4--/0--0-------|
C#|--0------/0--/0--0-----4-\2-0-0-0------/0--/0--0-------|
G#|--2------/4--/5--x-----x-\x-x-4-2------/4--/5--0-------|
C#|--x------/x--/x--5-----x-\x-x-x-x------/x--/x--5-------|

Due to insistent public demand, even though I don't have the rights to publish this tabs, I still did just for all of you guys! HAHA! Hope you enjoyed. Sorry for the mistakes. It's the first time I made a computerized tab, so..anyway, Enjoy guys!

P.S. FEEL FREE to SUBSCRIBE to my YouTube Channel : http://www.youtube.com/mynameisAmieL
Follow me on Twitter: @mynameisAmieL
Like me on FACEBOOK: http://www.facebook.com/mynameisamielmusicOFFICIAL
Download my tracks for FREE on: http://www.reverbnation.com/mynameisamielmusic or in the "Band Profile" or "FREE MP3s" section on my FACEBOOK Page. :)

TABS made on:
http://www.guitartabcreator.com
Guitar Tab Creator is intended to store guitar tab created through the tool. It currently does not support in-line text editing. Any text you place in here will be lost. If you need to comment on your tab, please use the "Tab Notes" section located below.