Vocalise

(/) Slide Up  (\) Slide Down  (h) Hammer On  (p) Pull Off  (b) Bend (r) Release (v) Vibrato

E|--------5--4--5--------2--4--|--5--4--2--4--------|--4--------------2-----2--------|--------------
B|--2--2--2-----2--2--2--2-----|--2--2-----0--5--7--|--------------------5-----3--5--|--------------
G|--2--2--2-----2--2--2--2-----|--2-----------------|--4--4--4--4--2--2-----2--------|--------------
D|-----4--------2--------------|--0--------0--6-----|--6--6--6--6--------------4-----|--------------
A|-----------------------------|--------------------|--4-----------4--------2--------|--------------
E|-----------------------------|--------------------|--------------------------------|--------------



E|--2--------------------------|-----------------------2--5--7-----9--|--5--------3--|--
B|-----------0--5--3--1-----0--|--2-----3--2-----2--3-----------------|--2--2--------|--
G|--2--2--2--------------------|--4--4-----3--3--2-----2--------------|--2--2--4--4--|--
D|--4--4--4-----4-----3--3-----|-----------------4-----------6--6-----|--------0--0--|--
A|--0--------------------------|-----------------2-----------5--------|--------------|--
E|-----------4--------3--------|--2--------2-----------------0--------|--2-----------|--

Stave 1:

E|--2------------------|-----2-----------------2--------0-----|-----------------------------0--2-----|--
B|--4--4--6v-----4--6--|-----2--2--2--2-----2--2-----2--------|-----4-----------------4--------------|--
G|--2--2--4---4--------|-----2--2--2--------------------2-----|-----------------------2-----1--------|--
D|---------------------|--------------4--2--4--2--1--2--------|-----7--7--7--7-----7-----------4-----|--
A|--4------------------|--------------------------------3--4--|--6-----------6--4--6--4--3--4--3--2--|--
E|--------4------------|-----2--------------------------------|--------------------------------------|--

Stave 2:

E|--2--0--2--4-----------------0--2--4--|--6-----------------3-----4--6-----|--
B|-----------5-----------2--4-----------|-----------------------------------|--
G|--1--------------------------1--------|--3--3--3--6--4--6--4--3--4--3--4--|--
D|--------------------------------------|-----------------------------------|--
A|--3--------4--4--2--4--2--1--2--1-----|-----4--4--------------------------|--
E|-----------------------------------4--|--3--------6-----6--6-----4--------|--

Stave 3:

E|--6--4--6--7-----------6--4--2--|-----4-----------2--1--2-----------------|--
B|-----0-----0--0-----0--0--0-----|--------3--2--3-----------2--1--2--2--4--|--
G|--6--------------------------3--|-----1--1-----1--1-----1--1-----1--------|--
D|-----------------------6-----4--|-----0-----------------0-----------------|--
A|-----6-----6--6--5--6-----------|--------------2-----------------1--------|--
E|--3-----------------------------|-----------------------------------------|--

Stave 4:

E|--1--2--4--5-----------4--2-----|-----------2--------------------------|--
B|-----------------------2--2--5--|--5--4--5--------------5--4--5--------|--
G|--1--1--------------------------|--------------------------------4--6--|--
D|-----------4--------3--4--4--4--|--4--4-----4-----------4-----4--4-----|--
A|--0-----------4--6-----------2--|--4--2--------3--2--3-----------------|--
E|--------------------------------|-----------5--------------------------|--

Stave 5:

E|--------2--3-----------2--------|-----------------------2-----|--4-----2--0--2-----|--
B|--4--5--------------------5--3--|--2--------------------1-----|--0-----1--2--4--4--|--
G|-----------------------3--------|--------------5--------1--2--|-----------3-----5--|--
D|--4--4-----2-----------2--------|--2--2--2--2--------4--0-----|--------------------|--
A|--2-----------2--4--5--2--------|--1--1--0--0--6--7--6--------|--4-----------------|--
E|--------------------------------|-----------------------------|--1--2-----3-----4--|--

Stave 6:

E|------------9-------9--7------7-----5--7--|--9---------5--4--5--------2--4--|--|--
B|----------------12--------10--------6-----|--10--2--2--2-----2--2--2--2-----|--|--
G|------------10------9--8------7-----------|------2--2--2-----2--2--2--2-----|--|--
D|--11--------------------------5--6--7--6--|---------------------------------|--|--
A|--11--------------------------------------|--9------------------------------|--|--
E|--9---9--9--9-------9--9------------------|---------2--------0--------------|--|--

Stave 7:

E|--------------------4-----2-----|--1-----4--------------4--------2-----|-----------
B|--2-----------------0--0--0--2--|--3-----0-----3--2--3--2--0--2-----2--|-----------
G|--1-----------------------------|--------------------------------4-----|-----------
D|--------------------3--3--3-----|--3--3--3--3--------3--3-----3--3-----|-----------
A|--4--------2--4--5--------------|--------------------------------------|-----------
E|-----1--1-----------------------|--------------------------------------|-----------

Stave 8:

E|--1-----4-----------5--4--------|--
B|--3-----------2--3--------7-----|--
G|--4--4--4--4--------------6--4--|--
D|-----------------4--4--4--------|--
A|--4--4--4--4-----2--5--5--5-----|--
E|--------------------------------|--

http://www.guitartabcreator.com
Guitar Tab Creator is intended to store guitar tab created through the tool. It currently does not support in-line text editing. Any text you place in here will be lost. If you need to comment on your tab, please use the "Tab Notes" section located below.