Ghost Guitar

(/) Slide Up  (\) Slide Down  (h) Hammer On  (p) Pull Off  (b) Bend (r) Release (v) Vibrato
E|--------------
B|--------------
G|--------------
D|--------------
A|--------------
E|--0--0--6--5--



E|-------------------------------------------------------------------------
B|-------------------------------------------------------------------------
G|-------------------------------------------------------------------------
D|-------------------------------------------------------------------------
A|-------------------------------------------------------------------------
E|--0--0--6--5--5b6--0--0--6--5----0--0--6--5----0--0--5--3----1--1--3--0--



E|--------------------------------------------------------------------------------
B|--------------------------------------------------------------------------------
G|----------------7--------------------6------------------------------------------
D|----------------7--------------------6------------------7--------------------6--
A|--------------------------------------------------------7--------------------6--
E|--0--0--6--5---------0--0--6--5-----------0--0--6--5---------0--0--6--5---------



http://www.guitartabcreator.com
Guitar Tab Creator is intended to store guitar tab created through the tool. It currently does not support in-line text editing. Any text you place in here will be lost. If you need to comment on your tab, please use the "Tab Notes" section located below.