poem party-strange boys.

(/) Slide Up  (\) Slide Down  (h) Hammer On  (p) Pull Off  (b) Bend (r) Release (v) Vibrato
E|----------------------------------------------|----------11------11--11--6--6--|--
B|------14--11----------------------------------|------14------14----------6--6--|--
G|--------------13--11--11------13--11----------|--------------------------7--7--|--
D|--------------------------13----------13--11--|--------------------------8--8--|--
A|----------------------------------------------|--------------------------------|--
E|--11------------------------------------------|--11----------------------6--6--|--



E|----------------------------------------------|----------11------11--11--6--6--|--
B|------14--11----------------------------------|------14------14----------6--6--|--
G|--------------13--11--11------13--11----------|--------------------------7--7--|--
D|--------------------------13----------13--11--|--------------------------8--8--|--
A|----------------------------------------------|--------------------------------|--
E|--11------------------------------------------|--11----------------------6--6--|--



E|----------------------------------------------|----------11------11--11--6--6--|--
B|------14--11----------------------------------|------14------14----------6--6--|--
G|--------------13--11--11------13--11----------|--------------------------7--7--|--
D|--------------------------13----------13--11--|--------------------------8--8--|--
A|----------------------------------------------|--------------------------------|--
E|--11------------------------------------------|--11----------------------6--6--|--



E|----------------------------------------------|----------11------11--11--6--6--|--
B|------14--11----------------------------------|------14------14----------6--6--|--
G|--------------13--11--11------13--11----------|--------------------------7--7--|--
D|--------------------------13----------13--11--|--------------------------8--8--|--
A|----------------------------------------------|--------------------------------|--
E|--11------------------------------------------|--11----------------------6--6--|--



E|--6--6--6--|--8---8---8---|--
B|--6--6--6--|--8---8---8---|--
G|--7--7--7--|--9---9---9---|--
D|--8--8--8--|--10--10--10--|--
A|-----------|--------------|--
E|--6--6--6--|--8---8---8---|--



E|----------------------------------------------|--
B|------14--11----------------------------------|--
G|--------------13--11--11------13--11----------|--
D|--------------------------13----------13--11--|--
A|----------------------------------------------|--
E|--11------------------------------------------|--



E|----------------------------------------------|--
B|------14--11----------------------------------|--
G|--------------13--11--11------13--11----------|--
D|--------------------------13----------13--11--|--
A|----------------------------------------------|--
E|--11------------------------------------------|--



E|----------------------------------------------|--
B|------14--11----------------------------------|--
G|--------------13--11--11------13--11----------|--
D|--------------------------13----------13--11--|--
A|----------------------------------------------|--
E|--11------------------------------------------|--



E|----------------------------------------------|--
B|------14--11----------------------------------|--
G|--------------13--11--11------13--11----------|--
D|--------------------------13----------13--11--|--
A|----------------------------------------------|--
E|--11------------------------------------------|--



E|----------------------------------------------|--
B|------14--11----------------------------------|--
G|--------------13--11--11------13--11----------|--
D|--------------------------13----------13--11--|--
A|----------------------------------------------|--
E|--11------------------------------------------|--



E|----------------------------------------------|--
B|------14--11----------------------------------|--
G|--------------13--11--11------13--11----------|--
D|--------------------------13----------13--11--|--
A|----------------------------------------------|--
E|--11------------------------------------------|--



E|--6--6--6--|--8---8---8---
B|--6--6--6--|--8---8---8---
G|--7--7--7--|--9---9---9---
D|--8--8--8--|--10--10--10--
A|-----------|--------------
E|--6--6--6--|--8---8---8---

Improvisation:

E|--8---8---8---8---8---8---6--6--|--
B|--10--10--10--10--10--10--6--6--|--
G|--10--10--10--10--10--10--7--7--|--
D|--10--10--10--10--10--10--8--8--|--
A|--8---8---8---8---8---8---8--8--|--
E|--------------------------6--6--|--
http://www.guitartabcreator.com
Guitar Tab Creator is intended to store guitar tab created through the tool. It currently does not support in-line text editing. Any text you place in here will be lost. If you need to comment on your tab, please use the "Tab Notes" section located below.