the melody to your heart

(/) Slide Up  (\) Slide Down  (h) Hammer On  (p) Pull Off  (b) Bend (r) Release (v) Vibrato
capo on third fret

E|-------0---------0---------0---|-------0---------0---------0---|---
B|---3-----3---3-----3---3-----3-|---6-----6---6-----6---6-----6-|---
G|-----2---------2---------2-----|-----5---------5---------5-----|---
D|-0---------0---------0---------|-7---------7---------7---------|---
A|-------------------------------|-------------------------------|---
E|-------------------------------|-------------------------------|---



E|-------0---------0---|-------3---------3---|-
B|---3-----3---3-----3-|---3-----3---3-----3-|-
G|-----2---------2-----|-----0---------0-----|-
D|-0---------0---------|-2---------2---------|-
A|---------------------|---------------------|-
E|---------------------|---------------------|-
http://www.guitartabcreator.com
Guitar Tab Creator is intended to store guitar tab created through the tool. It currently does not support in-line text editing. Any text you place in here will be lost. If you need to comment on your tab, please use the "Tab Notes" section located below.