Callejón de un solo caño

(/) Slide Up  (\) Slide Down  (h) Hammer On  (p) Pull Off  (b) Bend (r) Release (v) Vibrato

E|--12--12--12--12--12--14-------------------------------9--0------------9------10--10--12--
B|--------------------------12--15--9--12--9--12--9--10--------9--12--9-----12--------------
G|------------------------------------------------------------------------------------------
D|------------------------------------------------------------------------------------------
A|------------------------------------------------------------------------------------------
E|------------------------------------------------------------------------------------------



E|--12--12--12--12--12--14-------------------------------9--0----------------------------------------
B|--------------------------12--15--9--12--9--12--9--10--------10--10--9------10--12--14--12--9--12--
G|------------------------------------------------------------------------11-------------------------
D|---------------------------------------------------------------------------------------------------
A|---------------------------------------------------------------------------------------------------
E|---------------------------------------------------------------------------------------------------



E|------
B|--10--
G|------
D|------
A|------
E|------
http://www.guitartabcreator.com
Guitar Tab Creator is intended to store guitar tab created through the tool. It currently does not support in-line text editing. Any text you place in here will be lost. If you need to comment on your tab, please use the "Tab Notes" section located below.