My Friend

(/) Slide Up  (\) Slide Down  (h) Hammer On  (p) Pull Off  (b) Bend (r) Release (v) Vibrato

E|--------------0-----------------------0-----------------------0-----------------------0-----------
B|-----------3-----3-----3-----------3-----3-----3-----------3-----3-----3-----------3-----3-----3--
G|--------4-----------4-----------4-----------4-----------4-----------4-----------4-----------4-----
D|-----4-----------------------4-----------------------4-----------------------4--------------------
A|--2-----------------------0-----------------------------------------------------------------------
E|--------------------------------------------------3-----------------------3-----------------------



E|-------------------------0--
B|--3--3--3--3--------2----0--
G|--4--4--4--4--------2----1--
D|--4--4--4--4--------2----2--
A|--2--2--2--2-------------2--
E|-------------------------0--
Guitar Tab Creator is intended to store guitar tab created through the tool. It currently does not support in-line text editing. Any text you place in here will be lost. If you need to comment on your tab, please use the "Tab Notes" section located below.