my song

(/) Slide Up  (\) Slide Down  (h) Hammer On  (p) Pull Off  (b) Bend (r) Release (v) Vibrato

E|-----------------------|-----------------------|-----------------------|-----------------------
B|--3-----------3--------|--5-----------5--------|--1-----------1--------|--0-----------0--------
G|--------3-----------3--|--------5-----------5--|--------1-----------1--|--------0-----------0--
D|-----3-----------3-----|-----5-----------5-----|-----1-----------1-----|-----0-----------0-----
A|--3--------3-----------|--5--------5-----------|--1--------1-----------|--0--------0-----------
E|-----------------------|-----------------------|-----------------------|-----------------------



E|-----------------------|-----------------------|-----------------------|--------------------------
B|--3-----------3--------|--5-----------5--------|--1-----------1--------|--0-----------0--------0--
G|--------3-----------3--|--------5-----------5--|--------1-----------1--|--------0-----------0-----
D|-----3-----------3-----|-----5-----------5-----|-----1-----------1-----|-----0-----------2--------
A|--3--------3-----------|--5--------5-----------|--1--------1-----------|--0--------0--------------
E|-----------------------|-----------------------|-----------------------|--------------------------



E|-----------|----------------------|--------------------|----------------------
B|--------0--|--------0----------0--|--------3--------3--|--------1----------1--
G|-----0-----|-----0----------0-----|-----0--------0-----|-----0----------0-----
D|--2--------|--1----------1--------|--3--------3--------|--2----------2--------
A|-----------|----------------------|--------------------|----------------------
E|-----------|----------------------|--------------------|----------------------
http://www.guitartabcreator.com
Guitar Tab Creator is intended to store guitar tab created through the tool. It currently does not support in-line text editing. Any text you place in here will be lost. If you need to comment on your tab, please use the "Tab Notes" section located below.