WMD

(/) Slide Up  (\) Slide Down  (h) Hammer On  (p) Pull Off  (b) Bend (r) Release (v) Vibrato
t: W W WW W W WW W W W W W W W W W W undefined none nonenone none
E|--------------------------------------------------------------
B|--------------------------------------------------------------
G|--------------------------------------------------------------
D|--------------------------------------------------------------
A|--------------------------------------------------------------
E|--0--0--12--0--0--10--0--0--8--0--7--0--0--5--0--3----1/17\1--


t: none none W none none none none none W W none none
E|--x--x----------------------------
B|--x--x----------------------------
G|--6--6----5--5----3--3------5--5--
D|--6--6----5--5----3--3------5--5--
A|--4--4----3--3----1--1------3--3--
E|--x--x----------------------------



E|-------------------------------
B|-------------------------------
G|-------------------------------
D|-------------------------------
A|-------------------------------
E|--0--0--12--0--0--10--0--8-----



E|--------
B|--------
G|--3-----
D|--4-----
A|--4-----
E|--2-----
http://www.guitartabcreator.com
Guitar Tab Creator is intended to store guitar tab created through the tool. It currently does not support in-line text editing. Any text you place in here will be lost. If you need to comment on your tab, please use the "Tab Notes" section located below.