Abbey Road: You Never... Bathroom Window

(/) Slide Up  (\) Slide Down  (h) Hammer On  (p) Pull Off  (b) Bend (r) Release (v) Vibrato

*** Sun King ***

Guitar
D|--------2---------------------------------------2---------------------------------
A|--2-2/4---4\2-----------------------------2-2/4---4\2-----------------------------
E|----------------------------------------------------------------------------------

Bass
D|----------------------------------------------------------------------------------
A|----------------------------------------------------------------------------------
E|-----------0--12-12-12----0--12-12-12---------------0--12-12-12-----0--12-12-12---


Guitar
D|------------------------------------------------2---------------------------------
A|-------------2----------------------------2-2/4---4\2-----------------------------
E|-------0-2/4---2------------------------------------------------------------------

Bass
D|----------------------------------------------------------------------------------
A|-------------2--------------------------------------------------------------------
E|-------0-2/4---2--12-12-12---2--12-12-12------------0--12-12-12---0---------------


Guitar
D|-------------------------------------------------2--------------------------------
A|--------------2----------------------------2-2/4---4\2----------------------------
E|--------0-2/4---2-----------------------------------------------------------------

Bass
D|----------------------------------------------------------------------------------
A|----------------------------------------------------------------------------------
E|--0-0-4-5--7--0-2--12-12-12---2--12-12-12------------0--12-12-12---0----12--------


Guitar
D|-------------------------------------------------2--------------------------------
A|--------------2----------------------------2-2/4---4\2----------------------------
E|--------0-2/4---2-----------------------------------------------------------------

Bass
D|----------------------------------------------------------------------------------
A|----------------------------------------------------------------------------------
E|------4-5--7--0-2--12-12-12---2--12-12-12------------0--12-12-12---0--4--12---4---


Guitar
E|----------1------------------
B|----------3------------------
G|----------2------------------
D|----------0------------------
A|-----------------------------
E|-----------------------------

Bass
G|-----------------------------
D|-----------------------------
A|-----------------------------
E|----------2------------------
(ahhhhhhhhhhhhhhhh)

C Em Gm7 A
Here comes the sun king

C Em Gm7 A
Here comes the sun king

F D F D
Everybody's laughing Everybody's happy

C Em Gm7 F
Here comes the sun king


A E
Quando para mucho mi amore de felice corazon

A E
Mundo paparazzi mi amore chica ferdi parasol

A E
Questo abrigado tanta mucho que canite carousel


*** Mean Mr. Mustard ***

Guitar
----------E-------E-------E-------E--------E-------E---------E-------------E-------

Bass

A|----------------------------------------------------------------------------9----
E|--12-12----7-7----12-12---7-7-----12-12-----7-7-----12-12-----12-12--11--9-------


Guitar
----------B-------B-------B--B7-C7-C#7-D7--------D------D-------D--D7-C#7-C7-B7----

Bass

A|-----------9-9----------------------------------12-12------------------------------
E|---7-7-------------7-7-----7--8--9---10-10-10------------10-10---10--9---8--7------


Guitar
-------B-----B-----B------B-----------E-----C7-----B7-----B7--------E-----C7---B7-------B7-

Bass

A|-------------------9---------------------------------------------------------------------
E|-7-7---9-9---7-7-----7-9-11-7-12-12---8-8----7-7---9--9-11--12-12---8-8---7-7---6-7-9-11-
Guitar Tab Creator is intended to store guitar tab created through the tool. It currently does not support in-line text editing. Any text you place in here will be lost. If you need to comment on your tab, please use the "Tab Notes" section located below.