Peaches A ascending run

[code]
(/) Slide Up (\) Slide Down (h) Hammer On (p) Pull Off (b) Bend (r) Release (v) Vibrato


E|-----------------------------------------------------7-----------------7-----5-----------------8--
B|--------------------------------------------4--7--5-----7-----------7-----3-----5-----------5-----
G|--------------------------------------4--------------------7--6--7-----------------5--4--5--------
D|-----7--------------------------4--------4--------------------------------------------------------
A|--7-----7--5--4-----7--4--6--------6--------------------------------------------------------------
E|-----------------5-----------7--------------------------------------------------------------------



E|-----------------------------------------------5-----
B|--------------------5--6--5--------------7--3-----5--
G|--4-----5--4--7--5-----------7-----7--4--------------
D|-----7--------------------------7--------------------
A|-----------------------------------------------------
E|-----------------------------------------------------
[/code]
[url]http://www.guitartabcreator.com[/url]
Guitar Tab Creator is intended to store guitar tab created through the tool. It currently does not support in-line text editing. Any text you place in here will be lost. If you need to comment on your tab, please use the "Tab Notes" section located below.