Dying days

(/) Slide Up  (\) Slide Down  (h) Hammer On  (p) Pull Off  (b) Bend (r) Release (v) Vibrato

Stave 1:

E|-----3--5--7--5--3p2--2--
B|--3----------------------
G|-------------------------
D|-------------------------
A|-------------------------
E|-------------------------

Stave 2:

E|-----2--3--5--2h3--0--
B|--3-------------------
G|----------------------
D|----------------------
A|----------------------
E|----------------------

Stave 3:

E|--0--2--3--2h3p2p0-----5/7--5--3--
B|--------------------3----------3--
G|----------------------------------
D|----------------------------------
A|----------------------------------
E|----------------------------------

Stave 4:

E|-----3--5--7--7/8--10--
B|--3--------------------
G|-----------------------
D|-----------------------
A|-----------------------
E|-----------------------

Stave 5:

E|--10--10--10--10-----5--8--7--5--7p5--3--5--3--2--3--
B|------------------3----------------------------------
G|-----------------------------------------------------
D|-----------------------------------------------------
A|-----------------------------------------------------
E|-----------------------------------------------------

Stave 6:

E|--3--3--3--3--5--3--2--0--5-----7--5--3--
B|-----------------3--3--1--5-----------3--
G|-----------------------------7-----------
D|-----------------------------------------
A|-----------------------------------------
E|-----------------------------------------

Stave 7:

E|--3--2--3--2--0--10--
B|--3--3--3--3--1------
G|---------------------
D|---------------------
A|---------------------
E|---------------------

Stave 8:

E|--7--7--5--3--------
B|--------------------
G|--------------------
D|--------------------
A|--------------------
E|--------------------

Stave 9:

E|-----7--8--7--5--3--2-------5--
B|-------------------------------
G|--9--------------------5/7-----
D|-------------------------------
A|-------------------------------
E|-------------------------------

Stave 10:

E|--3--2--3--2--0-------5--5--7--3--
B|--3--3--3--3--1-------------------
G|-----------------5/7--------------
D|----------------------------------
A|----------------------------------
E|----------------------------------

Stave 11:

E|-----------------
B|--1--3--4--3--1--
G|-----------------
D|-----------------
A|-----------------
E|-----------------

Stave 12:

E|-------5--7--8--2--3--2--0--5--------8--7--3--
B|----------------3--3--3--1--5--------------3--
G|--5/7--------------------------7--9-----------
D|----------------------------------------------
A|----------------------------------------------
E|----------------------------------------------

http://www.guitartabcreator.com
Guitar Tab Creator is intended to store guitar tab created through the tool. It currently does not support in-line text editing. Any text you place in here will be lost. If you need to comment on your tab, please use the "Tab Notes" section located below.