My Heart Will Go On

(/) Slide Up  (\) Slide Down  (h) Hammer On  (p) Pull Off  (b) Bend (r) Release (v) Vibrato
E|--------------------------------------------------------------
B|--10/12--12--14--14\12--10--12--12--17--14/17--19--17\14--12--
G|--------------------------------------------------------------
D|--------------------------------------------------------------
A|--------------------------------------------------------------
E|--------------------------------------------------------------



E|--------------------------------------------------------
B|--10----10--10--10--9--10--10--9--10--10--12--14--12\9--
G|--------------------------------------------------------
D|--------------------------------------------------------
A|--------------------------------------------------------
E|--------------------------------------------------------



E|--------------------------------------------------------
B|--10----10--10--10--9--10--10--9--10--10--9\7--5--12\9--
G|--------------------------------------------------------
D|--------------------------------------------------------
A|--------------------------------------------------------
E|--------------------------------------------------------



E|--------------------------------------------------------------------
B|--10----12----5--17--15--14--12--14--15--14--12--10--9--10--9\7--5--
G|--------------------------------------------------------------------
D|--------------------------------------------------------------------
A|--------------------------------------------------------------------
E|--------------------------------------------------------------------



E|------------------------------------------------------------------------------------------------
B|--10----12----5--17--15--14--12--14--15--14--12--10\9--10--9--9--10--12--14--15--14--12--9--10--
G|------------------------------------------------------------------------------------------------
D|------------------------------------------------------------------------------------------------
A|------------------------------------------------------------------------------------------------
E|------------------------------------------------------------------------------------------------
http://www.guitartabcreator.com
Guitar Tab Creator is intended to store guitar tab created through the tool. It currently does not support in-line text editing. Any text you place in here will be lost. If you need to comment on your tab, please use the "Tab Notes" section located below.