Song 1 - Album 1

(/) Slide Up  (\) Slide Down  (h) Hammer On  (p) Pull Off  (b) Bend (r) Release (v) Vibrato
E|--------------------------------------------------------
B|--------------------------------------------------------
G|--9--9--9--7--7--------------------------------7--7--9--
D|--7--7--7--5--5--7--7--7--9--9--5--5--5--7--7--5--5--7--
A|-----------------5--5--5--7--7--3--3--3--5--5-----------
E|--------------------------------------------------------



E|--12--12--12\10--10-----------------------------------------10--10/12v--
B|---------------------10--10--10/12--12--------------10--10--------------
G|----------------------------------------12--12--12----------------------
D|------------------------------------------------------------------------
A|------------------------------------------------------------------------
E|------------------------------------------------------------------------
http://www.guitartabcreator.com
Guitar Tab Creator is intended to store guitar tab created through the tool. It currently does not support in-line text editing. Any text you place in here will be lost. If you need to comment on your tab, please use the "Tab Notes" section located below.