Solo - D Harmonic Minor

(/) Slide Up  (\) Slide Down  (h) Hammer On  (p) Pull Off  (b) Bend (r) Release (v) Vibrato

E|---------------------------------------------------------------10--10--9-------------10v--
B|-----------------------------------------------------8--10v---------------10--8--10-------
G|--9b10b9--9--7--9--10--9--7v----9b10b9--9--7--9--10---------------------------------------
D|------------------------------------------------------------------------------------------
A|------------------------------------------------------------------------------------------
E|------------------------------------------------------------------------------------------



E|--9--10--9-------------------------------------------------------------------------------------
B|------------10---------------------------------------------------------------------------------
G|----------------7v------10p9p7--10p9p7--10p9p7--10p9p7--10\12--10p9p7--10p9p7--10p9p7--10\14v--
D|-----------------------------------------------------------------------------------------------
A|-----------------------------------------------------------------------------------------------
E|-----------------------------------------------------------------------------------------------



E|------------------------------------------------------------------
B|------------------------------------------------------------------
G|--10p9p7--10p9p7--10p9p7--10p9p7--10\12--10p9p7--10p9p7--7h9h10v--
D|------------------------------------------------------------------
A|------------------------------------------------------------------
E|------------------------------------------------------------------



E|-----------------------------------------------------------------------------
B|-----------------------------------------------------------------------------
G|----------------------------------------------------------7h9h10--7h9h10--7--
D|------------------------------5h7h8--5h7h8--5h7h8--5h7h8---------------------
A|--5h7h8--5h7h8--5h7h8--5h7h8-------------------------------------------------
E|-----------------------------------------------------------------------------



E|-------------------------------------------------------------------------
B|------------------8h10h11--8h10h11--8h10h11--8h10h11\15v--15v------------
G|--7h9h10--7h9h10---------------------------------------------------------
D|-------------------------------------------------------------------12/0--
A|-------------------------------------------------------------------------
E|-------------------------------------------------------------------------
http://www.guitartabcreator.com
Guitar Tab Creator is intended to store guitar tab created through the tool. It currently does not support in-line text editing. Any text you place in here will be lost. If you need to comment on your tab, please use the "Tab Notes" section located below.