1 Octave C Major Scale Fingerings starting from C3

(/) Slide Up  (\) Slide Down  (h) Hammer On  (p) Pull Off  (b) Bend (r) Release (v) Vibrato


E|-------------------------------------------------------------------------------------------------
B|-------------------------------------------------------------------------------------------------
G|-----------------2--4--5-------------------------------------------------------------------------
D|--------2--3--5-------------------------2--3--5--7--9--10---------------------------7--9--10-----
A|--3--5----------------------------3--5------------------------------------7--8--10---------------
E|-------------------------------------------------------------------8--10-------------------------



E|-----------------------------------------------------------------------------------------------
B|--------------------0--1-----------------------------------------------------------------------
G|--------------0--2----------------------------------4--5---------------------------------------
D|-----0--2--3-------------------------------3--5--7--------------------------------------9--10--
A|--3-------------------------------3--5--7------------------------------------8--10--12---------
E|------------------------------------------------------------------8--10--12--------------------
http://www.guitartabcreator.com
Guitar Tab Creator is intended to store guitar tab created through the tool. It currently does not support in-line text editing. Any text you place in here will be lost. If you need to comment on your tab, please use the "Tab Notes" section located below.