Study in B minor - Sor

(/) Slide Up  (\) Slide Down  (h) Hammer On  (p) Pull Off  (b) Bend (r) Release (v) Vibrato

E|--3-----------3-----7-----------7-----5-----------5-----3-----------3-----2-----------2--------
B|-----5-----5-----5-----8-----8-----8-----7-----7-----7-----5-----5-----5-----4-----4-----4-----
G|--------4-----------------------------------------------------4-----------------4--------------
D|--------------------------9-----------------9--------------------------------------------------
A|-----------------------------------------------------------------------------------------------
E|-----------------------------------------------------------------------------------------------



E|--3-----------3-----5-----------6-----7------------------
B|-----5-----5-----5-----5-----5-----5-----7-----7---------
G|--------4-----------------5-----------------8------------
D|--------------------------------------------------9------
A|---------------------------------------------------------
E|---------------------------------------------------------
http://www.guitartabcreator.com
Guitar Tab Creator is intended to store guitar tab created through the tool. It currently does not support in-line text editing. Any text you place in here will be lost. If you need to comment on your tab, please use the "Tab Notes" section located below.