B minor Solo

(/) Slide Up  (\) Slide Down  (h) Hammer On  (p) Pull Off  (b) Bend (r) Release (v) Vibrato
E|---------------------------------------------------------------------------
B|---------------------------------------------------------------------------
G|---------------------------------------------------------------------------
D|--9--9--9--9--9--9--9--9--9--9--9--9--9--9--9--9--12--9--9--9--9--9--9--9--
A|---------------------------------------------------------------------------
E|---------------------------------------------------------------------------



E|--------------------------
B|--------------------------
G|--------------------------
D|--9--9--9--9--9--9--9--9--
A|--------------------------
E|--------------------------



E|------------------------------10h12h14--15p14p12------------------------------------
B|--------------------10h12h14----------------------15p14p12------12--14--15--14--12--
G|-----------9h11h12------------------------------------------14----------------------
D|--9h11h12---------------------------------------------------------------------------
A|------------------------------------------------------------------------------------
E|------------------------------------------------------------------------------------



E|----------------------------------------------
B|---------12---------12---------12---------12--
G|--14b16------14b16------14b16------14b16------
D|----------------------------------------------
A|----------------------------------------------
E|----------------------------------------------
http://www.guitartabcreator.com
Guitar Tab Creator is intended to store guitar tab created through the tool. It currently does not support in-line text editing. Any text you place in here will be lost. If you need to comment on your tab, please use the "Tab Notes" section located below.