Song 7

(/) Slide Up  (\) Slide Down  (h) Hammer On  (p) Pull Off  (b) Bend (r) Release (v) Vibrato


E|-----------------------|-----------------------
B|-----------------------|-----------------------
G|-----------------------|-----------------------
D|---6---6---6---6---6---|---4---4---4---4---4---
A|---6---6---6---6---6---|---4---4---4---4---4---
E|---4---4---4---4---4---|---2---2---2---2---2---



E|-----------------------|-----------------------
B|-----------------------|-----------------------
G|-----------------------|-----------------------
D|---2---2---2---2---2---|---4---4---4---4---4---
A|---2---2---2---2---2---|---4---4---4---4---4---
E|---0---0---0---0---0---|---2---2---2---2---2---



E|-------------------|-------------------|-------------------
B|-------------------|-------------------|-------------------
G|-------------------|-------------------|----9----9----9----
D|----6----6----6----|----9----9----9----|----9----9----9----
A|----6----6----6----|----9----9----9----|----7----7----7----
E|----4----4----4----|----7----7----7----|-------------------



E|-------------------|-------------------|-------------------
B|-------------------|-------------------|-------------------
G|-------------------|----9----9----9----|-------------------
D|----6----6----6----|----9----9----9----|----6----6----6----
A|----6----6----6----|----7----7----7----|----6----6----6----
E|----4----4----4----|-------------------|----4----4----4----
http://www.guitartabcreator.com
Guitar Tab Creator is intended to store guitar tab created through the tool. It currently does not support in-line text editing. Any text you place in here will be lost. If you need to comment on your tab, please use the "Tab Notes" section located below.