Song 5

(/) Slide Up  (\) Slide Down  (h) Hammer On  (p) Pull Off  (b) Bend (r) Release (v) Vibrato

E|----------------|----------------|---------
B|----------------|----------------|---------
G|----------------|----12----12----|---------
D|----14----14----|----12----12----|---------
A|----14----14----|----10----10----|---------
E|----12----12----|----------------|---------



E|-------------------
B|-------------------
G|-------------------
D|-12-12-12-12-12-14-
A|-12-12-12-12-12-14-
E|-10-10-10-10-10-12-



E|-------------------------|---------------------------
B|-------------------------|---------------------------
G|-------------------------|---------------------------
D|-------------------------|---------------------------
A|-------------------------|-10-10-10-10-10-10-10-10---
E|-12-12-12-12-12-12-12-12-|---------------------------



E|-------------------------|---------------------------
B|-------------------------|---------------------------
G|-------------------------|---------------------------
D|-------------------------|---------------------------
A|-------------------------|---------------------------
E|-10-10-10-10-10-10-10-10-|-12-12-12-12-12-12-12-12---



E|----------------|----------------
B|----------------|----------------
G|----14----14----|----12----12----
D|----14----14----|----12----12----
A|----12----12----|----10----10----
E|----------------|----------------



E|-------------------
B|-------------------
G|-------------------
D|-12-12-12-12-12-14-
A|-12-12-12-12-12-14-
E|-10-10-10-10-10-12-
http://www.guitartabcreator.com
Guitar Tab Creator is intended to store guitar tab created through the tool. It currently does not support in-line text editing. Any text you place in here will be lost. If you need to comment on your tab, please use the "Tab Notes" section located below.