Song 3

(/) Slide Up  (\) Slide Down  (h) Hammer On  (p) Pull Off  (b) Bend (r) Release (v) Vibrato


E|---------------------|---
B|---------------------|---
G|---10---10---9---9---|---
D|---10---10---9---9---|---
A|---8----8----7---7---|---
E|---------------------|---



E|-----------------------
B|-----------------------
G|-----------------------
D|---7---7---7---7---7---
A|---7---7---7---7---7---
E|---5---5---5---5---5---



E|----------------------------
B|----------------------------
G|----11----11----10----10----
D|----11----11----10----10----
A|----9-----9-----8-----8-----
E|----------------------------



E|-----------------------------
B|-----------------------------
G|-----------------------------
D|----7----7----7----7----7----
A|----7----7----7----7----7----
E|----5----5----5----5----5----



E|--------------------|--------------------|--------------------|--------------------
B|--------------------|--------------------|--------------------|--------------------
G|--------------------|--5--5--5--5--5--5--|--------------------|--6--6--6--6--6--6--
D|--5--5--5--5--5--5--|--5--5--5--5--5--5--|--6--6--6--6--6--6--|--6--6--6--6--6--6--
A|--5--5--5--5--5--5--|--3--3--3--3--3--3--|--6--6--6--6--6--6--|--4--4--4--4--4--4--
E|--3--3--3--3--3--3--|--------------------|--4--4--4--4--4--4--|--------------------



E|-------------------|-------------|---------------|----------------------
B|-------------------|-------------|---------------|----------------------
G|-------------------|-------------|---------------|----------------------
D|-------------------|-------------|---------------|----------------------
A|-------------------|-------------|-9-9-9-9-9-9-9-|-11-11-11-11-11-11-11-
E|-11-11-11-11-11-11-|-9-9-9-9-9-9-|---------------|----------------------
http://www.guitartabcreator.com
Guitar Tab Creator is intended to store guitar tab created through the tool. It currently does not support in-line text editing. Any text you place in here will be lost. If you need to comment on your tab, please use the "Tab Notes" section located below.