Song 2

(/) Slide Up  (\) Slide Down  (h) Hammer On  (p) Pull Off  (b) Bend (r) Release (v) Vibrato

E|-------------|-------------|-------------|-------------|--
B|-------------|-------------|-------------|-------------|--
G|--------5----|-------------|--------3----|-------------|--
D|--------5----|--------5----|--------3----|--------3----|--
A|--3--3--3----|--------5----|--1--1--1----|--------3----|--
E|-------------|--3--3--3----|-------------|--1--1--1----|--



E|--------------|--------------|--
B|--------------|--------------|--
G|--5--5--5-----|--3--3--3-----|--
D|--5--5--5--5--|--3--3--3--3--|--
A|--3--3--3--5--|--1--1--1--3--|--
E|-----------3--|-----------1--|--



E|-------------|-------------|-------------|-------------|--
B|-------------|-------------|-------------|-------------|--
G|--------6----|-------------|--------4----|-------------|--
D|--------6----|--------6----|--------4----|--------4----|--
A|--4--4--4----|--------6----|--2--2--2----|--------4----|--
E|-------------|--4--4--4----|-------------|--2--2--2----|--



E|--------------|--------------|--------------|-----------|-----
B|--------------|--------------|--------------|-----------|-----
G|--5--5--5--5--|--------------|--3--3--3--3--|-----------|-----
D|--5--5--5--5--|--5--5--5--5--|--3--3--3--3--|--3--3--3--|-----
A|--3--3--3--3--|--5--5--5--5--|--1--1--1--1--|--3--3--3--|-----
E|--------------|--3--3--3--3--|--------------|--1--1--1--|-----
http://www.guitartabcreator.com
Guitar Tab Creator is intended to store guitar tab created through the tool. It currently does not support in-line text editing. Any text you place in here will be lost. If you need to comment on your tab, please use the "Tab Notes" section located below.