ManWomanBoogie

(/) Slide Up  (\) Slide Down  (h) Hammer On  (p) Pull Off  (b) Bend (r) Release (v) Vibrato

Get down riff
G|-----------------------------------------
D|--------7--------------------------------
A|-----------4--4--5--5--6--6--7--7--------
E|--5--5-----------------------------7--0--

turn around riff
G|--7/9--6--------------------------------------------
D|----------7-----6--7--------------------------------
A|-------------7--------7--4-----5--6--7--------------
E|----------------------------5-----------7--0--4--5--

close out riff
G|--------------------------
D|--------------------------
A|--4-----6--7--------------
E|-----7--------7--0--4--5--
http://www.guitartabcreator.com

thanks to Montmarcey for the

thanks to Montmarcey for the tutorial

Guitar Tab Creator is intended to store guitar tab created through the tool. It currently does not support in-line text editing. Any text you place in here will be lost. If you need to comment on your tab, please use the "Tab Notes" section located below.