Time to Testify Solo

(/) Slide Up  (\) Slide Down  (h) Hammer On  (p) Pull Off  (b) Bend (r) Release (v) Vibrato


E|-------------------------------------------------------------------------
B|-------------------------------------------------------------------------
G|-----------10v--------10--12b14----12b14--14r12--10--12--12b14--10--12v--
D|------/12---------12-----------------------------------------------------
A|-------------------------------------------------------------------------
E|-------------------------------------------------------------------------



E|---------------------------------------------------------------------------
B|---------------------------------------------------------------------------
G|--10------------------------------------------------------------------10v--
D|------12----/10--12---------------------------------10--12----10--12-------
A|---------------------10----------10------10/12-----------------------------
E|-------------------------10--13------13------------------------------------



E|---------------------------------------------13--15b17--17r15p13h15--13--13-------
B|------------------------------15--13v----15----------------------------------15v--
G|--------10--12b14--12b14--10------------------------------------------------------
D|----12----------------------------------------------------------------------------
A|----------------------------------------------------------------------------------
E|----------------------------------------------------------------------------------
http://www.guitartabcreator.com
Guitar Tab Creator is intended to store guitar tab created through the tool. It currently does not support in-line text editing. Any text you place in here will be lost. If you need to comment on your tab, please use the "Tab Notes" section located below.