Time to Testify

(/) Slide Up  (\) Slide Down  (h) Hammer On  (p) Pull Off  (b) Bend (r) Release (v) Vibrato
E|-----------------------------------
B|-----------------------------------
G|--------------2--1--0--0--------0--
D|--0--------0--------------3--0-----
A|-----3--0--------------------------
E|-----------------------------------



E|-----------------------------------------------
B|-----------------------------------------------
G|-----------------------------------0--1--2-----
D|--------------------------0--3--3--------------
A|-----0--3--3--0-----3--3--------------------0--
E|--3--------------3-----------------------------



E|------------------------------------------------------------------------------------------------
B|--------4--4-----------------4--4---------------------1--1-----------------1--1-----------------
G|------------------------------------------------------------------------------------------------
D|--1--1--------1--------1--1--------1--0------------------------------------------------0--1-----
A|-----------------------------------------4--3------3--------3--------3--3--------3--4-----------
E|------------------------------------------------------------------------------------------------



E|------------------------------------------------------------------------------------
B|-----4--4-----------------4--4-------------------1--1-----------------1--1----------
G|------------------------------------------------------------------------------------
D|--1--------1--------1--1--------1--0------------------------------------------------
A|--------------------------------------4--3----3--------3--------3--3--------3----3--
E|------------------------------------------------------------------------------------
http://www.guitartabcreator.com
Guitar Tab Creator is intended to store guitar tab created through the tool. It currently does not support in-line text editing. Any text you place in here will be lost. If you need to comment on your tab, please use the "Tab Notes" section located below.