Anastasia(intro) by Slash

(/) Slide Up  (\) Slide Down  (h) Hammer On  (p) Pull Off  (b) Bend (r) Release (v) Vibrato
E|------13--12--13--10--13--12--13------13--12--13--10--13--12--13------13--12--13--10--13--12--13--
B|--10------------------------------10------------------------------11------------------------------
G|--------------------------------------------------------------------------------------------------
D|--------------------------------------------------------------------------------------------------
A|--------------------------------------------------------------------------------------------------
E|--------------------------------------------------------------------------------------------------



E|------13--12--13--10--13--12--13------15--13--15--12--15--13--15------15--13--15--12--15--13--15--
B|--11------------------------------12------------------------------12------------------------------
G|--------------------------------------------------------------------------------------------------
D|--------------------------------------------------------------------------------------------------
A|--------------------------------------------------------------------------------------------------
E|--------------------------------------------------------------------------------------------------



E|------15--12--15--13--15--12--15------15--12--15--13--15--12--15------17--15--17--12--17--15--17--
B|--13------------------------------13------------------------------14------------------------------
G|--------------------------------------------------------------------------------------------------
D|--------------------------------------------------------------------------------------------------
A|--------------------------------------------------------------------------------------------------
E|--------------------------------------------------------------------------------------------------



E|------17--15--17--12--17--15--17------17--13--17--12--17--13--17------17--13--17--12--17--13--17--
B|--14------------------------------15------------------------------15------------------------------
G|--------------------------------------------------------------------------------------------------
D|--------------------------------------------------------------------------------------------------
A|--------------------------------------------------------------------------------------------------
E|--------------------------------------------------------------------------------------------------



E|------18--17--18------17--15--17------15--14--15------15--14--15------13--12--13------13--12--13--
B|--15--------------14--------------13--------------12--------------11--------------10--------------
G|--------------------------------------------------------------------------------------------------
D|--------------------------------------------------------------------------------------------------
A|--------------------------------------------------------------------------------------------------
E|--------------------------------------------------------------------------------------------------



E|-----12--11--12-----12--11--12--------------------------------------------------------------
B|--9-----------------------------10--13--12--13--9--12--10--12--8--12--10--12-----10--9--10--
G|-----------------9------------------------------------------------------------7-------------
D|--------------------------------------------------------------------------------------------
A|--------------------------------------------------------------------------------------------
E|--------------------------------------------------------------------------------------------



E|---------------------------------
B|--6--10--8--10-----8--7--8--7b5--
G|----------------5----------------
D|---------------------------------
A|---------------------------------
E|---------------------------------
http://www.guitartabcreator.com
Guitar Tab Creator is intended to store guitar tab created through the tool. It currently does not support in-line text editing. Any text you place in here will be lost. If you need to comment on your tab, please use the "Tab Notes" section located below.