Yes - Starship Trooper Riff

(/) Slide Up  (\) Slide Down  (h) Hammer On  (p) Pull Off  (b) Bend (r) Release (v) Vibrato


E|----0-------0------0-------0-------------0------0-----0-----0-------------------------------
B|------10------10-----10------10------------8------8-----8-----8--------10------10------10---
G|-13------11------9---------------------7----------------------------------10------10--------
D|------------------------13------9-11-9-------10-----9-----7---------------------------------
A|----------------------------------------------------------------10-7-8-------7-------8------
E|--------------------------------------------------------------------------------------------



E|---------------------------------------------------------------------1-
B|-------10------------------------------------------------------------1-
G|-10-------10-7-7---7-----7-----7-----7---------5-----5-----5---------2-
D|---------------------8-----8-----8-----8---------6-----6-----6-------3-
A|----10-----------------------------------5-5---------------------3-3-3-
E|-----------------6-----5-----6-----8---------4-----3-----4-----6-----1-
http://www.guitartabcreator.com
Guitar Tab Creator is intended to store guitar tab created through the tool. It currently does not support in-line text editing. Any text you place in here will be lost. If you need to comment on your tab, please use the "Tab Notes" section located below.