The Broken

(/) Slide Up  (\) Slide Down  (h) Hammer On  (p) Pull Off  (b) Bend (r) Release (v) Vibrato


E|-----------0--------------------0--------------------0--------------------0-----------
B|--------3-----3--------------3-----3--------------------3--------------------3--------
G|-----2-----------2--------2-----------2-----------0--------0--------------------0-----
D|--0-----------------0--3-----------------3-----2--------------2--------0-----------0--
A|--------------------------------------------3-----------------------2-----------------
E|-----------------------------------------------------------------3--------------------



E|---------------
B|---------------
G|--7--10--5-----
D|--7--10--5--5--
A|--5--8---3--5--
E|------------3--
http://www.guitartabcreator.com
Guitar Tab Creator is intended to store guitar tab created through the tool. It currently does not support in-line text editing. Any text you place in here will be lost. If you need to comment on your tab, please use the "Tab Notes" section located below.