Untitled - Lick 1 Drop C

(/) Slide Up  (\) Slide Down  (h) Hammer On  (p) Pull Off  (b) Bend (r) Release (v) Vibrato
E|----------------------------------------------------------------------------------------------------
B|----------------------------------------------------------------------------------------------------
G|-----------------------------------------------------------------------------8--5-------------------
D|--------------------------------------------------------------------6-----6--------7--4-------------
A|--7-----------------------5--------5--------7-----7--------------------7-----------------5--4-------
E|-----5--4--0--4--5--4--0-----7--4-----7--4-----5-----5--4--0--4--5-----------------------------7--4\



E|--------------------------------------------------
B|--------------------------------------------------
G|--------------------------------------------------
D|--------------------------------------------------
A|--7-----5-----------------------------------------
E|-----4-----4--0--4--0--4--7--4--0--4--5h7p5--0--4\



E|-------------------------------------------
B|-------------------------------------------
G|-------------------------------------------
D|-------------------------------------------
A|--7-----5----------------------------------
E|-----4-----4--0--4--0--4--7--4--0--4--5b---



E|---------------------------------------------------
B|---------------------------------------------------
G|---------------------------------------------------
D|---------------------------------------------------
A|--7-----5------------------------------------------
E|-----4-----4--0--4--0--4--7--4--0--4--5h8p5--0--4--



E|--------------------------------------------9--14\
B|----------------------------------------10--------
G|------------------------------------11------------
D|--------------------------------11----------------
A|--7-----5-----------------9h12--------------------
E|-----4-----4--0--4--0--4--------------------------
http://www.guitartabcreator.com
Guitar Tab Creator is intended to store guitar tab created through the tool. It currently does not support in-line text editing. Any text you place in here will be lost. If you need to comment on your tab, please use the "Tab Notes" section located below.