Flower- Drop C intro 4/4

(/) Slide Up  (\) Slide Down  (h) Hammer On  (p) Pull Off  (b) Bend (r) Release (v) Vibrato


E|-----------------------------------------------------
B|-----------------------------------------------------
G|-----------------------------------------------------
D|-----------11-------------------------9-----------5--
A|--0--7--9----------------12--------7-----------2-----
E|---------------0--9--10------0--7--------0--3--------



E|-----------------------------------------------------------------------------------------
B|-----------------------------------------------------------------------------------------
G|-------------------------9b9v--6h7p6-----9--6--------4-----------------------------------
D|-----------11--0--7--11---------------7--------7--------6-----------------------------7--
A|--0--7--9-----------------------------------------9--------7--------------7--0--5--9-----
E|--------------------------------------------------------------7--0--5--9-----------------
http://www.guitartabcreator.com
Guitar Tab Creator is intended to store guitar tab created through the tool. It currently does not support in-line text editing. Any text you place in here will be lost. If you need to comment on your tab, please use the "Tab Notes" section located below.