Ingenue

(/) Slide Up  (\) Slide Down  (h) Hammer On  (p) Pull Off  (b) Bend (r) Release (v) Vibrato


E|-------------------------------------------------------------------------------------------------
B|--11--10--8-----------------------11--10--8----------------------------------------11--10--8-----
G|-------------------------------------------------------------------------------------------------
D|------------------------------------------------5-----8--7--5-----5------------------------------
A|-----------------12-----10-----8-----------------------------------------------------------------
E|-------------10------8------6----------------3-----6-----------3-----3----3----------------------



E|-------------------------
B|-------------------------
G|-------------------------
D|------8--8------7--------
A|--10--------10-----8--5--
E|-------------------------
http://www.guitartabcreator.com
Guitar Tab Creator is intended to store guitar tab created through the tool. It currently does not support in-line text editing. Any text you place in here will be lost. If you need to comment on your tab, please use the "Tab Notes" section located below.