Atoms for peace - Ingenue

(/) Slide Up  (\) Slide Down  (h) Hammer On  (p) Pull Off  (b) Bend (r) Release (v) Vibrato

E|----------------------------------------------------------------------------------
B|--11--10--8-----------------------11--10--8----------------------------11--10--8--
G|----------------------------------------------------------------------------------
D|-----------------12-----10-----8----------------5-----8p7-----7-------------------
A|----------------------------------------------------------------------------------
E|-------------10------8------6----------------3-----6-------5-----3--3-------------



E|------------------------------------------------------------------------------
B|-----------------------------11--10--8-----------------------------11--10--8--
G|-------------------------12---------------------------------------------------
D|------8--8------7---------------------------12-----10-----8-----5-------------
A|--10--------10-----8--5-------------------------------------------------------
E|----------------------------------------10------8------6-----3----------------



E|--------------------------------------------------------------
B|------------------------11--10--8--6--------------------------
G|-----3--3--2--0-----12-------------------2--------0-----0-----
D|-----------------3-----------------------3-----2--------------
A|--------------------------------------------3-----------------
E|--3-----------------------------------1--------------3--------
http://www.guitartabcreator.com
Guitar Tab Creator is intended to store guitar tab created through the tool. It currently does not support in-line text editing. Any text you place in here will be lost. If you need to comment on your tab, please use the "Tab Notes" section located below.