Windbreaker

(/) Slide Up  (\) Slide Down  (h) Hammer On  (p) Pull Off  (b) Bend (r) Release (v) Vibrato

E|---------------------0-----------------------------------------------------------------
B|-------------3-----------3-------------------2-----------2-----------2h3p2-------0h2---
G|---------0-------0-----------0-----------------------0-------0-------------------------
D|---0h2---------------------------2p0-------------2---------------2-----------2---------
A|---2-----2-----------------------------2p1---0-----------------------------------------
E|---0-----------------------------------------------------------------------------------



E|-------------------------
B|--1--------3--------3p1--
G|--------0--------0-------
D|-----2--------2----------
A|--3--------3--------3----
E|-------------------------
http://www.guitartabcreator.com
Guitar Tab Creator is intended to store guitar tab created through the tool. It currently does not support in-line text editing. Any text you place in here will be lost. If you need to comment on your tab, please use the "Tab Notes" section located below.