Layla live

(/) Slide Up  (\) Slide Down  (h) Hammer On  (p) Pull Off  (b) Bend (r) Release (v) Vibrato

Stave 1:

E|-----------------12--13--12--10----------15b17--13------------------------13--15b17--15b17--
B|--13b15--15--15------------------13--10-------------15--13h15--15--13h15--------------------
G|--------------------------------------------------------------------------------------------
D|--------------------------------------------------------------------------------------------
A|--------------------------------------------------------------------------------------------
E|--------------------------------------------------------------------------------------------

Stave 2:

E|--13h15--13--15--15b17--15--13------13------13h15--15b17--15b17--13------15b17--13---------
B|--------------------------------15------15---------------------------15-------------15-----
G|-------------------------------------------------------------------------------------------
D|-------------------------------------------------------------------------------------------
A|-------------------------------------------------------------------------------------------
E|-------------------------------------------------------------------------------------------

Stave 3:

E|-----15b17--13-----------13h15--17--18b20--17--15---------------------
B|----------------15v--15----------------------------18--15------18b20--
G|-----------------------------------------------------------17---------
D|----------------------------------------------------------------------
A|----------------------------------------------------------------------
E|----------------------------------------------------------------------

Stave 4:

E|---------15h17p15------15--------------------------------
B|--15h18------------18------18p15------15--18b20--15--15--
G|----------------------------------17---------------------
D|---------------------------------------------------------
A|---------------------------------------------------------
E|---------------------------------------------------------

Stave 5:

E|------------------------------------------------------------------------------------------------
B|-------------------------------------15--18--18b20--15--15--------------------------------------
G|--------7--10--10b11--7--7----15\17-------------------------------------------------------------
D|--7\10------------------------------------------------------------------------------------------
A|------------------------------------------------------------------------------------------------
E|------------------------------------------------------------------------------------------------

Stave 6:

E|------------------------------------------------------------------------
B|--18p15------18p15------18p15------18p15------18p15------18b20--15--15--
G|---------17---------17---------17---------17---------17-----------------
D|------------------------------------------------------------------------
A|------------------------------------------------------------------------
E|------------------------------------------------------------------------

http://www.guitartabcreator.com
Guitar Tab Creator is intended to store guitar tab created through the tool. It currently does not support in-line text editing. Any text you place in here will be lost. If you need to comment on your tab, please use the "Tab Notes" section located below.